Oops, an error
Loading. Please wait.

Love Yourself tab

3,952 views 114 this week
no commentswrite comment
1 2 3 4 5
x 7
add to favorites
×
Save as Personal and add changes to this tab that will be seen only by you. Learn more ›
×
You can save this tab as Personal to edit and correct it or add notes. All changes will be seen only by you. Learn more »
launch autoscroll
font size
0
reset
how to read this tab
guitar tuner
edit
Autoscroll
slow
fast
+/-
esc
set tempo
stop
Tabbed by: Nosnip  
https://www.youtube.com/watch?v=9kxgPateMLI


[Verse]

e|---------------------------------------------------------------|
B|---5--5--5----6--5--5----5--5--5---6--5--3---------------------|
G|---4--4--5----5--4--4----4--4--5---5--4--4---------------------|
D|---5--5--5----7--5--5----5--5--5---7--5--5---------------------|
A|---3----------5--3-------3---------5--3------------------------|
E|------3--5----------3-------3--5---------3---------------------|
For all the times that you rain on my parade
And all the clubs you get in using my name
You think you broke my heart, oh, girl for goodness' sake
You think I'm crying on my own. Well, I ain't


e|---------------------------------------------------------------|
B|---5--5--5----6--5--5----5--5--5---6--5--3---------------------|
G|---4--4--5----5--4--4----4--4--5---5--4--4---------------------|
D|---5--5--5----7--5--5----5--5--5---7--5--5---------------------|
A|---3----------5--3-------3---------5--3------------------------|
E|------3--5----------3-------3--5---------3---------------------|
And I didn't wanna write a song
'Cause I didn't want anyone thinking I still care. I don't,
But you still hit my phone up
And, baby, I be movin' on
And I think you should be somethin' I don't wanna hold back,
Maybe you should know that


[Pre-Chorus]

e|---------------------------------------------------------------|
B|----1-----5--5--1--5----5--1--5--5--1--6-----------------------|
G|----2--4--4--5--2--4----5--2--4--4--2--5-----------------------|
D|----3--5--5--5--3--5----5--3--5--5--3--7-----------------------|
A|-------5--3--------3----------3--------5-----------------------|
E|----1--3-----5--1-------5--1-----3--1--------------------------|
My mama don't like you and she likes everyone
And I never like to admit that I was wrong
And I've been so caught up in my job,
Didn't see what's going on
But now I know,
I'm better sleeping on my own


[Chorus]

e|---------------------------------------------------------------|
B|---5--5--5--1--5--5--5----5--0--1--1---5--5--5-----------------|
G|---4--4--5--2--4--4--4----4--0--0--2---4--4--4-----------------|
D|---5--5--5--3--5--5--5----5--0--2--3---5--5--5-----------------|
A|---3-----------3-----3----3--2--0--3---3-----3-----------------|
E|------3--5--1-----3-----------------------3--------------------|
'Cause if you like the way you look that much
Oh, baby, you should go and love yourself
And if you think that I'm still holdin' on to somethin'
You should go and love yourself


[Verse]

e|---------------------------------------------------------------|
B|---5--5--5----6--5--5----5--5--5---6--5--3---------------------|
G|---4--4--5----5--4--4----4--4--5---5--4--4---------------------|
D|---5--5--5----7--5--5----5--5--5---7--5--5---------------------|
A|---3----------5--3-------3---------5--3------------------------|
E|------3--5----------3-------3--5---------3---------------------|
And when you told me that you hated my friends
The only problem was with you and not them
And every time you told me my opinion was wrong
And tried to make me forget where I came from


e|---------------------------------------------------------------|
B|---5--5--5----6--5--5----5--5--5---6--5--3---------------------|
G|---4--4--5----5--4--4----4--4--5---5--4--4---------------------|
D|---5--5--5----7--5--5----5--5--5---7--5--5---------------------|
A|---3----------5--3-------3---------5--3------------------------|
E|------3--5----------3-------3--5---------3---------------------|
And I didn't wanna write a song
'Cause I didn't want anyone thinking I still care. I don't,
But you still hit my phone up
And, baby, I be movin' on
And I think you should be somethin' I don't wanna hold back,
Maybe you should know that


[Pre-Chorus]

e|---------------------------------------------------------------|
B|----1-----5--5--1--5----5--1--5--5--1--6-----------------------|
G|----2--4--4--5--2--4----5--2--4--4--2--5-----------------------|
D|----3--5--5--5--3--5----5--3--5--5--3--7-----------------------|
A|-------5--3--------3----------3--------5-----------------------|
E|----1--3-----5--1-------5--1-----3--1--------------------------|
My mama don't like you and she likes everyone
And I never like to admit that I was wrong
And I've been so caught up in my job,
Didn't see what's going on
But now I know,
I'm better sleeping on my own


[Chorus]

e|---------------------------------------------------------------|
B|---5--5--5--1--5--5--5----5--0--1--1--5--5--5------------------|
G|---4--4--5--2--4--4--4----4--0--0--2--4--4--4------------------|
D|---5--5--5--3--5--5--5----5--0--2--3--5--5--5------------------|
A|---3-----------3-----3----3--2--0--3--3-----3------------------|
E|------3--5--1-----3----------------------3---------------------|
'Cause if you like the way you look that much
Oh, baby, you should go and love yourself
And if you think that I'm still holdin' on to somethin'
You should go and love yourself


[Solo]

e|---------------------------------------------------------------|
B|---5--5--5--1--5--5--5----5--0--1--1--5--5--5------------------|
G|---4--4--5--2--4--4--4----4--0--0--2--4--4--4------------------|
D|---5--5--5--3--5--5--5----5--0--2--3--5--5--5------------------|
A|---3-----------3-----3----3--2--0--3--3-----3------------------|
E|------3--5--1-----3----------------------3---------------------|


[Bridge]

e|---------------------------------------------------------------|
B|---5--5--5--6--5--5--5--3--5--0--1--6--6--7--8-----------------|
G|---4--4--5--5--4--4--4--4--4--0--2--5--5--6--7-----------------|
D|---5--5--5--7--5--5--5--5--5--0--2--7--7--8--9-----------------|
A|---3-----7--5--3--3--3-----3--2--0--5--5--6--7-----------------|
E|------3--5--------------3--------------------------------------|
For all the times that you made me feel small
I fell in love. Now I feel nothin' at all
And never felt so low when I was vulnerable
Was I a fool to let you break down my walls?


[Chorus]

e|---------------------------------------------------------------|
B|---5--5--5--1---5--5--5--1---5--0--1--1--5--5--5---------------|
G|---4--4--5--2---4--4--5--2---4--0--0--2--4--4--4---------------|
D|---5--5--5--3---5--5--5--3---5--0--2--3--5--5--5---------------|
A|---3------------3------------3--2--0--3--3-----3---------------|
E|------3--5--1---1--3--5--1------------------3------------------|
'Cause if you like the way you look that much
'Cause if you like the way you look that much
'Cause if you like the way you look that much
Oh, baby, you should go and love yourself


[Outro]

                           clicking 
e|---------------------------------------------------------------|
B|---5--0--1--1--5--5--5-----------------------------------------|
G|---4--0--0--2--4--4--4-----------------------------------------|
D|---5--0--2--3--5--5--5-----------------------------------------| x2
A|---3--2--0--3--3-----3-----------------------------------------|
E|------------------3--------------------------------------------|
And if you think that I'm still holdin' on to somethin'
You should go and love yourself 
Suggest correction
Creating personal tab
Creating personal tab
You can edit any tab online and save it as your Personal.

You can edit, replace or remove any tab part or add personal notes – all changes will be seen only by you.

Personal tabs can be accessed anytime from any device, even offline.
Learn more »
comments
print report bad tab
guest
You may want to rate the tab now too:
select rating
Wanna post a correction for this tab? Suggest correction