Oops, an error
Loading. Please wait.

Pas De Deux tab

2,422 views 21 this week
1 commentread comment
1 2 3 4 5
x 7
add to favorites
×
Save as Personal and add changes to this tab that will be seen only by you. Learn more ›
×
You can save this tab as Personal to edit and correct it or add notes. All changes will be seen only by you. Learn more »
launch autoscroll
font size
0
reset
how to read this tab
guitar tuner
edit
Autoscroll
slow
fast
+/-
esc
set tempo
stop
Author
-------------------------------------------------------------------------------
                             PAS DE DEUX - Dodie Clark
-------------------------------------------------------------------------------
Hey so this is my first tab! I hope it turns out alright so please tell me what you think!
Now there's this thing in the song where she switches octaves and I'm just going to 
ignore it because if it is
physically possible to play it would be to hard for people with normal-proportioned 
fingers to play.
So basically this first part is mainly c

INTRO & FIRST VERSE
e|----------3------------3------------3--------------3-----|
B|-----1-----------1-------------1--------------1----------|
G|---------------------------------------------------------|
D|-------------2-------------3-------------3---------------|
A|--3------------------------------------------------------|
E|---------------------------------------------------------| x2

now there are two ways to play this next part. The first one is how Dodie Clark plays 
it, but it is a bit
hard to finger so i moved the hard notes down an octave to make it more manageable and 
it sounds fine.

e|----------3------------3-----------------3-----------------3--|
B|------1-----------1-----------------1----------------1--------|
G|----------------------------4-----------------2---------------|
D|-------------2------------------------------------------------|
A|--3-----------------------------------------------------------|
E|--------------------------------------------------------------|

e|----------3------------3------------3--------------3-----|
B|-----1-----------1-------------1--------------1----------|
G|---------------------------------------------------------|
D|-------------2-------------3-------------3---------------|
A|--3------------------------------------------------------|
E|---------------------------------------------------------|

Okay now this is the easier way


e|-----------3-----------3----------------3--------------3-|
B|------1-----------1----------------1-------------1-------|
G|---------------------------------------------------------|
D|-------------2-------------------------------------------|
A|--3--------------------------2--------------0------------|
E|---------------------------------------------------------|

e|----------3------------3------------3--------------3-----|
B|-----1-----------1-------------1--------------1----------|
G|---------------------------------------------------------|
D|-------------2-------------3-------------3---------------|
A|--3------------------------------------------------------|
E|---------------------------------------------------------|

SECOND VERSE

e|------------3-------------3--------------3--------------3-----|
B|-------1-------------1-------------1---------------1----------|
G|-----------------0-------------2------------------------------|
D|---3-------------2-------------3---------------3--------------|
A|---3----------------------------------------------------------|
E|--------------------------------------------------------------| x2

e|-------------3---------------3----------------3---------------3---|
B|-------1--------------1-----------------1----------------1--------|
G|----------------0-------------------0-----------------------------|
D|--3-------------2------------------------------------3------------|
A|--3---------------------------------2----------------0------------|
E|------------------------------------------------------------------|

e|------------3-------------3--------------3--------------3-----|
B|-------1-------------1-------------1---------------1----------|
G|-----------------0-------------2------------------------------|
D|---3-------------2-------------3---------------3--------------|
A|---3----------------------------------------------------------|
E|--------------------------------------------------------------|

then for the chorus it goes:

e|-----------3-------------3-------------------3------------------3---|
B|------1--------------1-----------------1------------------1---------|
G|---------------------------------2------------------0---------------|
D|---2-------------3--------------------------------------------------|
A|--------------------------------------------------------------------|
E|--------------------------------------------------------------------|
repeated however many times

So most of the song follows those, except for the bridge part, you know, "back to the 
studio, where she was told
 not to go...". That goes like this:

e|-----------3-------------3---------------3-----------------3---------------|
B|-------1-----------1----------------1----------------1---------------------|
G|---2-----------------------------------------------------------------------|
D|---------------3--------------3------------------3-------------------------|
A|---3-----------------------------------------------------------------------|
E|---------------------------------------------------------------------------|
     Back to the studio

e|---------------3-----------3------------------3----------------3-----------|
B|--------0--1-----------1----------------1----------------1-----------------|
G|--------0-----------0--------------0-----------------0---------------------|
D|--------0------------------------------------------------------------------|
A|---------------------------------------------------------------------------|
E|---------------------------------------------------------------------------|
   where she was told not to go

e|-----------------3-----------------3------------------3-------------------3-|
B|-----------0----------------0-------------------0-----------------0---------|
G|-------0--------------0------------------0-------------------0--------------|
D|-------2--------------------------------------------------------------------|
A|----------------------------------------------------------------------------|
E|----------------------------------------------------------------------------|
feeling sick with guilt, the tension builds

e|---------------3-----------3------------------3----------------3-------|
B|--------0--1-----------1----------------1----------------1-------------|
G|--------0-----------0--------------0-----------------0-----------------|
D|--------0--------------------------------------------------------------|
A|-----------------------------------------------------------------------|
E|-----------------------------------------------------------------------|
as she opens the door

and then that's repeated for the rest of the bridge.

In some places of the song you play the notes all together and note one at a time, if 
you listen you'll
be able to pick out where. Please tell me if you have any corrections, it means a lot to me!

************************************

            
            
Suggest correction
Creating personal tab
Creating personal tab
You can edit any tab online and save it as your Personal.

You can edit, replace or remove any tab part or add personal notes – all changes will be seen only by you.

Personal tabs can be accessed anytime from any device, even offline.
Learn more »
comments
print report bad tab
1 comment total.
0 reply
leahfearn1 10 Apr 17, 2017 05:57 AM

👍

guest
You may want to rate the tab now too:
select rating
Wanna post a correction for this tab? Suggest correction