Oops, an error
Loading. Please wait.

Question Marks ukulele

151 views 9 this week
no commentswrite comment
1 2 3 4 5
x 4
add to favorites
×
Save as Personal and add changes to this tab that will be seen only by you. Learn more ›
×
You can save this tab as Personal to edit and correct it or add notes. All changes will be seen only by you. Learn more »
launch autoscroll
font size
0
reset
transpose
0
reset
display chords
guitar tuner
edit
Autoscroll
slow
fast
+/-
esc
set tempo
stop
Strumming
There is no strumming pattern for this song yet. and get +5 IQ
This song does not really have a title.
Everything is tabbed out by ear so it may not be exact.
Check out this video for timing and practicing how to play it the same way dodie does.
https://www.youtube.com/watch?v=5yAAhznrgA4

[Intro]
  G
A|----2-------2-----2------2----2------2-----2-------2-----|
E|----3-----3-------3----3------3----3-------3-----3-------|
C|-2------2------2-----2------2----2-------2-----2---------|
G|---------------------------------------------------------|
                                                                 (repeat twice then the "ahhhh"s come in)
  C
A|-----3------3-----3------3-----3-------3-----3------3----|
E|-----3----3-------3----3-------3-----3-------3----3------|
C|--4-----4-------4----4-------4-----4-------4----4--------|
G|---------------------------------------------------------|

[Verse]
*when the "ahhhhh" section comes in*
  Gm                          Am
A|------1------1----1------1----3------3----3------3-------|
E|------3----3------3----3------5----5------5----5---------|     (repeat twice)
C|---2-----2------2----2------4----4------4----4-----------|
G|---------------------------------------------------------|

[Outro]
   G
A|----2-------2-----2------2----2------2-----2-------2-----|
E|----3-----3-------3----3------3----3-------3-----3-------|
C|-2------2------2-----2------2----2-------2-----2---------|
G|---------------------------------------------------------|
                                                                  (fade out but end on the G) (about 2x plus
                                                                  one more time on the G)
   C
A|-----3------3-----3------3-----3-------3-----3------3----|
E|-----3----3-------3----3-------3-----3-------3----3------|
C|--4-----4-------4----4-------4-----4-------4----4--------|
G|---------------------------------------------------------|

            
            
Suggest correction
Creating personal tab
Creating personal tab
You can edit any tab online and save it as your Personal.

You can edit, replace or remove any tab part or add personal notes – all changes will be seen only by you.

Personal tabs can be accessed anytime from any device, even offline.
Learn more »
comments
print report bad tab
guest
You may want to rate the tab now too:
select rating
Wanna post a correction for this tab? Suggest correction