Oops, an error
Loading. Please wait.

Sick Of Losing Soulmates Tab

1,018 views 102 this week
1 commentread comment
1 2 3 4 5
x 11
add to favorites
launch autoscroll
font size
0
reset
how to read this tab
guitar tuner
Autoscroll
slow
fast
+/-
esc
set tempo
stop
Help us to improve Ultimate-Guitar.com Take our survey!
×
Author
Difficulty
intermediate
About this tab version
This tab is from the official video the artist posted on Youtube of a tutorial of the song. Was this info helpful? Yes No
This is taken from the official video of the tutorial of the song that Dodie posted on her vlog channel
(https://www.youtube.com/watch?v=DUl75sVtsB0)

In the chorus, you switch to the 6th fret on the word "see" and the 1st on "me". Each tab is repeated until
you have to go to the next one. When switching you may have to play the last one in the section as a small
bridge to the next. If you listen to the song it should be easy to catch on to.

[Intro & Verse]

e|------------------------------------|
B|------------------------------------|
G|------------------------------------|
D|--0-0-0-0-0-0-0-0-0-0-0-0-0-0-0-0---|
A|------------------------------------|
E|-5-5-5-5-7-7-7-7-2-2-2-2-3-3-3-3----|

What a strange being you are,
God knows where I'd be
If you hadn't found me,
sitting all alone in the dark

A dumb screenshot of youth
Watch how a cold broken teen
Will desperately lean upon a superglued human of proof

[Pre-Chorus]

e|------------------------------------|
B|------------------------------------|
G|------------------------------------|
D|--0-0-0-0-0-0-0-0-0-0-0-0-0-0-0-0---|
A|------------------------------------|
E|-7-7-5-5-9-9-2-2-3-3-3-3-3-3-3-3----|

What the hell would I be,
without you
Brave face talk so lightly,
hide the truth

[Chorus]
 
e|------------------------------------------------------------------------|
B|------------------------------------------------------------------------|
G|------------------------------------------------------------------------|
D|--0-0-0-0-0-0-0-0-0-0-0-0-0-0-0-0-0-0-0-0-0-0-0-0-0-0-0-0-0-0-0-0-0-0---|
A|------------------------------------------------------------------------|
E|-2-2-3-3-3-3-3-3-5-5-7-7-7-7-7-7-7-7-6-6-6-6-1-1-1-1-5-5-5-5-5-5-5-5----|

Now I'm sick of losing soulmates,
so where do we begin
I can finally see, you're as fucked up as me
So how do we win?

I'm sick of losing soulmates,
won't be alone again
I can finally see, you're a s fucked up as me
So how do we win?

[Verse 2]

e|------------------------------------|
B|------------------------------------|
G|------------------------------------|
D|--0-0-0-0-0-0-0-0-0-0-0-0-0-0-0-0---|
A|------------------------------------|
E|-5-5-5-5-7-7-7-7-2-2-2-2-3-3-3-3----|

We will grow old as friends,
I've promised that before
So what's one more?
In our grey-haired circle, waiting for the end

Time and hearts wear us thin
So which path will you take,
cause we both know a break
Does exactly what it says on the tin

[Pre-Chorus]

e|------------------------------------|
B|------------------------------------|
G|------------------------------------|
D|--0-0-0-0-0-0-0-0-0-0-0-0-0-0-0-0---|
A|------------------------------------|
E|-7-7-5-5-9-9-2-2-3-3-3-3-3-3-3-3----|

What the hell would I be,
without you
Brave face talk so lightly,
hide the truth

[Chorus]

e|------------------------------------------------------------------------|
B|------------------------------------------------------------------------|
G|------------------------------------------------------------------------|
D|--0-0-0-0-0-0-0-0-0-0-0-0-0-0-0-0-0-0-0-0-0-0-0-0-0-0-0-0-0-0-0-0-0-0---|
A|------------------------------------------------------------------------|
E|-2-2-3-3-3-3-3-3-5-5-7-7-7-7-7-7-7-7-6-6-6-6-1-1-1-1-5-5-5-5-5-5-5-5----|

Now I'm sick of losing soulmates,
so where do we begin
I can finally see, you're as fucked up as me
So how do we win?

I'm sick of losing soulmates,
won't be alone again
I can finally see, you're a s fucked up as me
So how do we win?

[Bridge]

e|------------------------------------|
B|------------------------------------|
G|------------------------------------|
D|--0-0-0-0-0-0-0-0-0-0-0-0-0-0-0-0---|
A|------------------------------------|
E|-5-5-5-5-7-7-7-7-2-2-2-2-3-3-3-3----|

I won't take no for an answer (I won't take no for an answer)
I won't take no for an answer (I won't take no for an answer)
I won't take no (I won't take no)
I won't take no (I won't take no)

[Pre-Chorus]

e|------------------------------------|
B|------------------------------------|
G|------------------------------------|
D|--0-0-0-0-0-0-0-0-0-0-0-0-0-0-0-0---|
A|------------------------------------|
E|-7-7-5-5-9-9-2-2-3-3-3-3-3-3-3-3----|

What the hell would I be,
without you
Brave face talk so lightly,
hide the truth

[Chorus]

e|------------------------------------------------------------------------|
B|------------------------------------------------------------------------|
G|------------------------------------------------------------------------|
D|--0-0-0-0-0-0-0-0-0-0-0-0-0-0-0-0-0-0-0-0-0-0-0-0-0-0-0-0-0-0-0-0-0-0---|
A|------------------------------------------------------------------------|
E|-2-2-3-3-3-3-3-3-5-5-7-7-7-7-7-7-7-7-6-6-6-6-1-1-1-1-5-5-5-5-5-5-5-5----|

Now I'm sick of losing soulmates,
so where do we begin
I can finally see, you're as fucked up as me
So how do we win?

I'm sick of losing soulmates,
won't be alone again
I can finally see, you're a s fucked up as me
So how do we win?
Suggest correction
comments
print report bad tab
1 comment total.
0 reply
nerdalertgirl 28 Oct 27, 2016 01:31 AM

This is great. Thanks so much!!

guest
You may want to rate the tab now too:
select rating
Wanna post a correction for this tab? Suggest correction