Oops, an error
Loading. Please wait.

Sick Of Losing Soulmates tab

version 2
version 2

Whole song

38,611 views 273 this week
5 commentsread comments
1 2 3 4 5
x 111
add to favorites
×
Save as Personal and add changes to this tab that will be seen only by you. Learn more ›
×
You can save this tab as Personal to edit and correct it or add notes. All changes will be seen only by you. Learn more »
launch autoscroll
font size
0
reset
how to read this tab
guitar tuner
edit
Autoscroll
slow
fast
+/-
esc
set tempo
stop
Standard Tuning
No Capo


[Intro]

e|----------------------------|-----------------------------|
B|----------------------------|-----------------------------|
G|----------------------------|-----------------------------|
D|---0---0-0---0---0---0-0---0|---0---0-0---0---0---0-0---0-|    x2
A|----------------------------|-----------------------------|
E|-5---5-----5---7---7-----7--|-2---2-----2---3---3-----3---|


[Verse]

             What a strange being you are               god knows
e|----------------------------|-----------------------------|
B|----------------------------|-----------------------------|
G|----------------------------|-----------------------------|
D|---0---0-0---0---0---0-0---0|---0---0-0---0---0---0-0---0-|
A|----------------------------|-----------------------------|
E|-5---5-----5---7---7-----7--|-2---2-----2---3---3-----3---|


  where I would be if you hadn’t found me sitting all alone in the dark.
e|----------------------------|-----------------------------|
B|----------------------------|-----------------------------|
G|----------------------------|-----------------------------|
D|---0---0-0---0---0---0-0---0|---0---0-0---0---0---0-0---0-|
A|----------------------------|-----------------------------|
E|-5---5-----5---7---7-----7--|-2---2-----2---3---3-----3---|

             A dumb screenshot of youth                 watch how a
e|----------------------------|-----------------------------|
B|----------------------------|-----------------------------|
G|----------------------------|-----------------------------|
D|---0---0-0---0---0---0-0---0|---0---0-0---0---0---0-0---0-|
A|----------------------------|-----------------------------|
E|-5---5-----5---7---7-----7--|-2---2-----2---3---3-----3---|

  cold broken teen will desperately lean on a super glued human of proof.
e|----------------------------|-----------------------------|
B|----------------------------|-----------------------------|
G|----------------------------|-----------------------------|
D|---0---0-0---0---0---0-0---0|---0---0-0---0---0---0-0---0-|
A|----------------------------|-----------------------------|
E|-5---5-----5---7---7-----7--|-2---2-----2---3---3-----3---|


e|---------------|
B|---------------|
G|---------------|
D|---0---0-0---0-|
A|---------------|
E|-3---3-----3---|


[Pre-chorus]

   What the hell would I be without you.
e|---------------------------------|-----------------------------|
B|---------------------------------|-----------------------------|
G|---------------------------------|-----------------------------|
D|---0---0---0---0---0---0---0---0-|---0---0-0---0---0---0-0---0-|
A|---------------------------------|-----------------------------|
E|-7---7---5---5---9---9---2---2---|-3---3-----3---3---3-----3---|

   What the hell would I be.
e|---------------------------------|-----------------------------|
B|---------------------------------|-----------------------------|
G|---------------------------------|-----------------------------|
D|---0---0---0---0---0---0---0---0-|---0---0-0---0---0---0-0---0-|
A|---------------------------------|-----------------------------|
E|-7---7---5---5---9---9---2---2---|-3---3-----3---3---3-----3---|

   Brave face talk so lightly, hide the truth.
e|---------------------------------|-----------------------------|
B|---------------------------------|-----------------------------|
G|---------------------------------|-----------------------------|
D|---0---0---0---0---0---0---0---0-|---0---0-0---0---0---0-0---0-|
A|---------------------------------|-----------------------------|
E|-7---7---5---5---9---9---2---2---|-3---3-----3---3---3-----3---|


   Hide the truth.                                     Cos I'm sick of losing   
e|---------------------------------|-------------------------------|
B|---------------------------------|-------------------------------|
G|---------------------------------|-------------------------------|
D|---0---0---0---0---0---0---0---0-|---0---0-0---0---0---0---0---0-|
A|---------------------------------|-------------------------------|
E|-7---7---5---5---9---9---2---2---|-3---3-----3---3---3---2---2---|


[Chorus]

   soulmates.            So where do we begin?      I can finally 
e|------------------------------|-------------------------------|
B|------------------------------|-------------------------------|
G|------------------------------|-------------------------------|
D|---0---0-0---0---0---0---0---0|---0---0-0---0---0---0---0---0-|
A|------------------------------|-------------------------------|
E|-3---3-----3---3---3---5---5--|-7---7-----7---7---7---7---7---|

  see you're as fucked up as me, so how do we win? Yeah I'm sick of losing
e|----------------------------|-------------------------------|
B|----------------------------|-------------------------------|
G|----------------------------|-------------------------------|
D|---0---0-0---0---0---0-0---0|---0---0-0---0---0---0---0---0-|
A|----------------------------|-------------------------------|
E|-6---6-----6---1---1-----1--|-5---5-----5---5---5---2---2---|

   soulmates.            Won't be alone again.      I can finally
e|------------------------------|-------------------------------|
B|------------------------------|-------------------------------|
G|------------------------------|-------------------------------|
D|---0---0-0---0---0---0---0---0|---0---0-0---0---0---0---0---0-|
A|------------------------------|-------------------------------|
E|-3---3-----3---3---3---5---5--|-7---7-----7---7---7---7---7---|

  see you're as fucked up as me, so how do we win?
e|----------------------------|-----------------------------|
B|----------------------------|-----------------------------|
G|----------------------------|-----------------------------|
D|---0---0-0---0---0---0-0---0|---0---0-0---0---0---0-0---0-|
A|----------------------------|-----------------------------|
E|-6---6-----6---1---1-----1--|-5---5-----5---5---5-----5---|


[Instrumental]

e|----------------------------|-----------------------------|
B|----------------------------|-----------------------------|
G|----------------------------|-----------------------------|
D|---0---0-0---0---0---0-0---0|---0---0-0---0---0---0-0---0-|    x2
A|----------------------------|-----------------------------|
E|-5---5-----5---7---7-----7--|-2---2-----2---3---3-----3---|


[Verse]

             We will grow old as friends.               I've promised that
e|----------------------------|-----------------------------|
B|----------------------------|-----------------------------|
G|----------------------------|-----------------------------|
D|---0---0-0---0---0---0-0---0|---0---0-0---0---0---0-0---0-|
A|----------------------------|-----------------------------|
E|-5---5-----5---7---7-----7--|-2---2-----2---3---3-----3---|

  before so what’s one more? In our grey haired circle waiting for the end.
e|----------------------------|-----------------------------|
B|----------------------------|-----------------------------|
G|----------------------------|-----------------------------|
D|---0---0-0---0---0---0-0---0|---0---0-0---0---0---0-0---0-|
A|----------------------------|-----------------------------|
E|-5---5-----5---7---7-----7--|-2---2-----2---3---3-----3---|

             Time and hearts will wear us thin.         So which path will you
e|----------------------------|-----------------------------|
B|----------------------------|-----------------------------|
G|----------------------------|-----------------------------|
D|---0---0-0---0---0---0-0---0|---0---0-0---0---0---0-0---0-|
A|----------------------------|-----------------------------|
E|-5---5-----5---7---7-----7--|-2---2-----2---3---3-----3---|

   take cause we both know a break does exactly what it says on the tin.
e|----------------------------|-----------------------------|
B|----------------------------|-----------------------------|
G|----------------------------|-----------------------------|
D|---0---0-0---0---0---0-0---0|---0---0-0---0---0---0-0---0-|
A|----------------------------|-----------------------------|
E|-5---5-----5---7---7-----7--|-2---2-----2---3---3-----3---|


e|---------------|
B|---------------|
G|---------------|
D|---0---0-0---0-|
A|---------------|
E|-3---3-----3---|


[Pre-chorus]

   What the hell would I be without you.
e|---------------------------------|-----------------------------|
B|---------------------------------|-----------------------------|
G|---------------------------------|-----------------------------|
D|---0---0---0---0---0---0---0---0-|---0---0-0---0---0---0-0---0-|
A|---------------------------------|-----------------------------|
E|-7---7---5---5---9---9---2---2---|-3---3-----3---3---3-----3---|

   What the hell would I be.
e|---------------------------------|-----------------------------|
B|---------------------------------|-----------------------------|
G|---------------------------------|-----------------------------|
D|---0---0---0---0---0---0---0---0-|---0---0-0---0---0---0-0---0-|
A|---------------------------------|-----------------------------|
E|-7---7---5---5---9---9---2---2---|-3---3-----3---3---3-----3---|

   Brave face talk so lightly, hide the truth.
e|---------------------------------|-----------------------------|
B|---------------------------------|-----------------------------|
G|---------------------------------|-----------------------------|
D|---0---0---0---0---0---0---0---0-|---0---0-0---0---0---0-0---0-|
A|---------------------------------|-----------------------------|
E|-7---7---5---5---9---9---2---2---|-3---3-----3---3---3-----3---|


   Hide the truth.                                     Cos I'm sick of losing   
e|---------------------------------|-------------------------------|
B|---------------------------------|-------------------------------|
G|---------------------------------|-------------------------------|
D|---0---0---0---0---0---0---0---0-|---0---0-0---0---0---0---0---0-|
A|---------------------------------|-------------------------------|
E|-7---7---5---5---9---9---2---2---|-3---3-----3---3---3---2---2---|


[Chorus]

   soulmates.            So where do we begin?      I can finally 
e|------------------------------|-------------------------------|
B|------------------------------|-------------------------------|
G|------------------------------|-------------------------------|
D|---0---0-0---0---0---0---0---0|---0---0-0---0---0---0---0---0-|
A|------------------------------|-------------------------------|
E|-3---3-----3---3---3---5---5--|-7---7-----7---7---7---7---7---|

  see you're as fucked up as me, so how do we win? Yeah I'm sick of losing
e|----------------------------|-------------------------------|
B|----------------------------|-------------------------------|
G|----------------------------|-------------------------------|
D|---0---0-0---0---0---0-0---0|---0---0-0---0---0---0---0---0-|
A|----------------------------|-------------------------------|
E|-6---6-----6---1---1-----1--|-5---5-----5---5---5---2---2---|

   soulmates.            Won't be alone again.      I can finally
e|------------------------------|-------------------------------|
B|------------------------------|-------------------------------|
G|------------------------------|-------------------------------|
D|---0---0-0---0---0---0---0---0|---0---0-0---0---0---0---0---0-|
A|------------------------------|-------------------------------|
E|-3---3-----3---3---3---5---5--|-7---7-----7---7---7---7---7---|

  see you're as fucked up as me, so how do we win?
e|----------------------------|-----------------------------|
B|----------------------------|-----------------------------|
G|----------------------------|-----------------------------|
D|---0---0-0---0---0---0-0---0|---0---0-0---0---0---0-0---0-|
A|----------------------------|-----------------------------|
E|-6---6-----6---1---1-----1--|-5---5-----5---5---5-----5---|


[Instrumental]

e|----------------------------|-----------------------------|
B|----------------------------|-----------------------------|
G|----------------------------|-----------------------------|
D|---0---0-0---0---0---0-0---0|---0---0-0---0---0---0-0---0-|    x2
A|----------------------------|-----------------------------|
E|-5---5-----5---7---7-----7--|-2---2-----2---3---3-----3---|


  I won't take no for an answer...
e|----------------------------|-----------------------------|
B|----------------------------|-----------------------------|
G|----------------------------|-----------------------------|
D|---0---0-0---0---0---0-0---0|---0---0-0---0---0---0-0---0-|    x2
A|----------------------------|-----------------------------|
E|-5---5-----5---7---7-----7--|-2---2-----2---3---3-----3---|

  I won't take no...
e|----------------------------|-----------------------------|
B|----------------------------|-----------------------------|
G|----------------------------|-----------------------------|
D|---0---0-0---0---0---0-0---0|---0---0-0---0---0---0-0---0-|    x2
A|----------------------------|-----------------------------|
E|-5---5-----5---7---7-----7--|-2---2-----2---3---3-----3---|

         Cos I'm sick of losing
e|-----------------|
B|-----------------|
G|-----------------|
D|---0---0---0---0-|
A|-----------------|
E|-3---3---2---2---|


[Chorus]

   soulmates.            So where do we begin?      I can finally 
e|------------------------------|-------------------------------|
B|------------------------------|-------------------------------|
G|------------------------------|-------------------------------|
D|---0---0-0---0---0---0---0---0|---0---0-0---0---0---0---0---0-|
A|------------------------------|-------------------------------|
E|-3---3-----3---3---3---5---5--|-7---7-----7---7---7---7---7---|

  see you're as fucked up as me, so how do we win? Yeah I'm sick of losing
e|----------------------------|-------------------------------|
B|----------------------------|-------------------------------|
G|----------------------------|-------------------------------|
D|---0---0-0---0---0---0-0---0|---0---0-0---0---0---0---0---0-|
A|----------------------------|-------------------------------|
E|-6---6-----6---1---1-----1--|-5---5-----5---5---5---2---2---|

   soulmates.            Won't be alone again.      I can finally
e|------------------------------|-------------------------------|
B|------------------------------|-------------------------------|
G|------------------------------|-------------------------------|
D|---0---0-0---0---0---0---0---0|---0---0-0---0---0---0---0---0-|
A|------------------------------|-------------------------------|
E|-3---3-----3---3---3---5---5--|-7---7-----7---7---7---7---7---|

  see you're as fucked up as me, so how do we win?
e|----------------------------|-----------------------------|
B|----------------------------|-----------------------------|
G|----------------------------|-----------------------------|
D|---0---0-0---0---0---0-0---0|---0---0-0---0---0---0-0---0-|
A|----------------------------|-----------------------------|
E|-6---6-----6---1---1-----1--|-5---5-----5---5---5-----5---|


[Outro]

e|---------------|
B|---------------|
G|---------------|
D|---0---0-0---0-|    x3
A|---------------|
E|-5---5-----5---|

            
            
Suggest correction
Creating personal tab
Creating personal tab
You can edit any tab online and save it as your Personal.

You can edit, replace or remove any tab part or add personal notes – all changes will be seen only by you.

Personal tabs can be accessed anytime from any device, even offline.
Learn more »
comments
print report bad tab
5 comments total. Showing first comments.
+3 reply
icecream.ocelot 10 Feb 02, 2016 07:17 PM

This tab is great! It matches the song perfectly

+1 reply
anyelyaire1 10 Dec 01, 2016 02:51 PM, edited at 07:52 pm

I swear I feel like the timing is off but maybe its just me and I'm just bad at playing guitar

+1 reply
clairemurden 10 Mar 02, 2017 04:10 PM

The timing is a bit off, the notes don't match up with the words but otherwise this is great!

guest
You may want to rate the tab now too:
select rating
Wanna post a correction for this tab? Suggest correction