Oops, an error
Loading. Please wait.

Sick Of Losing Soulmates ukulele

version 3
version 3

Whole song

  • Only Ukulele Tab. Exact chords taken straight from... Show more
  • Tab transcribed from guitar to ukulele.
  • The string order and the octaves are a little bit ... Show more
5,353 views 36 this week
2 commentsread comments
1 2 3 4 5
x 13
add to favorites
×
Save as Personal and add changes to this tab that will be seen only by you. Learn more ›
×
You can save this tab as Personal to edit and correct it or add notes. All changes will be seen only by you. Learn more »
launch autoscroll
font size
0
reset
transpose
0
reset
simplify chords
display chords
guitar tuner
edit
Autoscroll
slow
fast
+/-
esc
set tempo
stop
Author
Difficulty
About this tab version
Only Ukulele Tab. Exact chords taken straight from her tutorial and adapted from guitar to ukulele. Was this info helpful? Yes No
Strumming
There is no strumming pattern for this song yet. and get +5 IQ
Asus:  2200
Bm:    4222
D:     2220
G5:    x235
Dmaj7: 2224

[Intro]
 Asus4            Bm              D               G5
A|---0--0--0--0--|---2--2--2--2--|---0--0--0--0--|---5--5--5--5--|
E|---------------|---------------|---------------|---------------|    x2
C|-2--2--2--2----|-2--2--2--2----|-2--2--2---2---|--2--2--2--2---|
G|---------------|---------------|---------------|---------------|

[Verse 1]
Asus4  Bm                D    G5
what a strange being you are
          Asus4 
god knows where I would be 
       Bm
if you hadn’t found me
        D                G5 
sitting all alone in the dark
Asus4  Bm            D    G5
A dumb screenshot of youth
            Asus4
watch how a cold broken teen
     Bm                    D                   G5
will desperately lean on a super-glued human of proof


[Pre-Chorus] 
  Bm      Asus4    Dmaj7      D         G5
A|---2--2---0--0-|---4---4---0---0--|---5---5---5---5--|---5---5---5---5--|
E|---------------|------------------|------------------|------------------|
C|-2--2---2--2---|-2---2---2---2----|-2---2---2---2----|-2---2---2---2----|
G|---------------|------------------|------------------|------------------|

Bm   Asus4 Dmaj7  D    G5
what the hell would I be
             Bm   Asus4 Dmaj7 D    G5     
without you (What the hell would I be)
Bm   Asus4 Dmaj7   D    G5
brave face talk so lightly 
                Bm Asus4 Dmaj7  D  G5
hide the truth (Hide    the     truth)


[Chorus]
  D         G5                         Asus4     Bm
A|---------|-----------------|-----------0---0--|---2---2---2---2--|---2---2---2---2--|
E|---2---2-|---3---3---3---3-|---3---3----------|------------------|------------------|
C|-2---2---|-2---2---2---2---|-2---2---2---2----|-2---2---2---2----|-2---2---2---2----|
G|---------|-----------------|------------------|------------------|------------------|

  Bb                  Dm                Asus4
A|---1---1---1---1--|---0---0---0---0--|---0---0---0---0--|
E|------------------|-1---1---1---1----|------------------|
C|-2---2---2---2----|------------------|-2---2---2---2----|
G|------------------|------------------|------------------|

          D              G5
Cause I’m sick of losing soul mates
   Asus4       Bm
so where do we begin
               Bb
I can finally see
                       Dm
you’re as fucked up as me
             Asus4
so how do we win? 

          D              G5
Yeah I’m sick of losing soul mates
   Asus4       Bm
won’t be alone again
               Bb
I can finally see
                       Dm
you’re as fucked up as me
             Asus4
so how do we win? 


[Interlude]
Asus4 Bm D G5 x2


[Verse 2]
 Asus4            Bm              D               G5
A|---0--0--0--0--|---2--2--2--2--|---0--0--0--0--|---5--5--5--5--|
E|---------------|---------------|---------------|---------------|    
C|-2--2--2--2----|-2--2--2--2----|-2--2--2---2---|--2--2--2--2---|
G|---------------|---------------|---------------|---------------|

Asus4   Bm          D        G5
We will grow old as friends
                   Asus4
I’ve promised that before
              Bm
so what’s one more?
                   D                      G5
in our grey haired circle waiting for the end
Asus4     Bm                 D   G5
time and hearts will wear us thin
                       Asus4
so which path will you take
                     Bm
cause we both know a break
                     D           G5
does exactly what it says on the tin


[Pre-Chorus]
  Bm      Asus4    Dmaj7      D         G5
A|---2--2---0--0-|---4---4---0---0--|---5---5---5---5--|---5---5---5---5--|
E|---------------|------------------|------------------|------------------|
C|-2--2---2--2---|-2---2---2---2----|-2---2---2---2----|-2---2---2---2----|
G|---------------|------------------|------------------|------------------|

Bm   Asus4 Dmaj7  D    G5
what the hell would I be
             Bm   Asus4 Dmaj7 D    G5     
without you (What the hell would I be)
Bm   Asus4 Dmaj7   D    G5
brave face talk so lightly 
                Bm Asus4 Dmaj7  D  G5
hide the truth (Hide    the     truth)


[Chorus]
  D         G5                         Asus4     Bm
A|---------|-----------------|-----------0---0--|---2---2---2---2--|---2---2---2---2--|
E|---2---2-|---3---3---3---3-|---3---3----------|------------------|------------------|
C|-2---2---|-2---2---2---2---|-2---2---2---2----|-2---2---2---2----|-2---2---2---2----|
G|---------|-----------------|------------------|------------------|------------------|

  Bb                  Dm                Asus4
A|---1---1---1---1--|---0---0---0---0--|---0---0---0---0--|
E|------------------|-1---1---1---1----|------------------|
C|-2---2---2---2----|------------------|-2---2---2---2----|
G|------------------|------------------|------------------|

          D              G5
Cause I’m sick of losing soul mates
   Asus4       Bm
so where do we begin
               Bb
I can finally see
                       Dm
you’re as fucked up as me
             Asus4
so how do we win? 

          D              G5
Yeah I’m sick of losing soul mates
   Asus4       Bm
won’t be alone again
               Bb
I can finally see
                       Dm
you’re as fucked up as me
             Asus4
so how do we win? 


[Interlude]
Asus4 Bm D G5 x2


{Bridge]
 Asus4            Bm              D               G5
A|---0--0--0--0--|---2--2--2--2--|---0--0--0--0--|---5--5--5--5--|
E|---------------|---------------|---------------|---------------|    
C|-2--2--2--2----|-2--2--2--2----|-2--2--2---2---|--2--2--2--2---|
G|---------------|---------------|---------------|---------------|

Asus4        Bm        D            G5
I won’t take no for an answer
                      (I won't take no for an answer)
Asus4        Bm        D            G5
I won’t take no for an answer
                      (I won't take no for an answer)
Asus4        Bm             D  G5
I won’t take no 
              (I won't take no)
Asus4        Bm             D  G5
I won’t take no 
              (I won't take no)


[Chorus]
  D         G5                         Asus4     Bm
A|---------|-----------------|-----------0---0--|---2---2---2---2--|---2---2---2---2--|
E|---2---2-|---3---3---3---3-|---3---3----------|------------------|------------------|
C|-2---2---|-2---2---2---2---|-2---2---2---2----|-2---2---2---2----|-2---2---2---2----|
G|---------|-----------------|------------------|------------------|------------------|

  Bb                  Dm                Asus4
A|---1---1---1---1--|---0---0---0---0--|---0---0---0---0--|
E|------------------|-1---1---1---1----|------------------|
C|-2---2---2---2----|------------------|-2---2---2---2----|
G|------------------|------------------|------------------|

          D              G5
Cause I’m sick of losing soul mates
   Asus4       Bm
so where do we begin
               Bb
I can finally see
                       Dm
you’re as fucked up as me
             Asus4
so how do we win? 

          D              G5
Yeah I’m sick of losing soul mates
   Asus4       Bm
won’t be alone again
               Bb
I can finally see
                       Dm
you’re as fucked up as me
             Asus4
so how do we win? 

            
            
Suggest correction
Creating personal tab
Creating personal tab
You can edit any tab online and save it as your Personal.

You can edit, replace or remove any tab part or add personal notes – all changes will be seen only by you.

Personal tabs can be accessed anytime from any device, even offline.
Learn more »
comments
print report bad tab
2 comments total.
+1 reply
Gabi8778 36 Aug 27, 2016 05:27 PM

Great tab I just wanted to know what string to pluck or whether you strum the chords. I was playing by plucking the C and G string but i don't know if that's right or not.

guest
You may want to rate the tab now too:
select rating
Wanna post a correction for this tab? Suggest correction