Oops, an error
Loading. Please wait.

Sick Of Losing Soulmates tab

version 5
version 5

Whole song

  • This tab is from the official video the artist pos... Show more
  • ver 6 new
    This version contains a second guitar part which i... Show more
6,475 views 432 this week
4 commentsread comments
1 2 3 4 5
x 10
add to favorites
×
Save as Personal and add changes to this tab that will be seen only by you. Learn more ›
×
You can save this tab as Personal to edit and correct it or add notes. All changes will be seen only by you. Learn more »
launch autoscroll
font size
0
reset
how to read this tab
guitar tuner
edit
Autoscroll
slow
fast
+/-
esc
set tempo
stop
[Intro]

Where you play the open string twice it's a slight pause and then played again

Optional you can slide your finger down to 2nd fret from the 7th fret and not pick the
open fret

e|---------------------------------------------------------------------------|
B|---------------------------------------------------------------------------|
G|---------------------------------------------------------------------------|
D|---0---0-0---0---0---0-0-----------------------0---0---0-0---0---0---0--0--|
A|---------------------------------------------------------------------------|
E|-5---5-----5---7---7-----7(optional slide now)---2---2-----2---3---3-----3-|X2

[Verse 1]

e|---------------------------------------------------------------------------|
B|---------------------------------------------------------------------------|
G|---------------------------------------------------------------------------|
D|---0---0-0---0---0---0-0---0---0---0-0---0---0---0-0-----------------------|
A|---------------------------------------------------------------------------|
E|-5---5-----5---7---7-----7---2---2-----2---3---3-----3---------------------|X4


[Pre-Chorus]

e|---------------------------------------------------------------------------|
B|---------------------------------------------------------------------------|
G|---------------------------------------------------------------------------|
D|---0--0--0--0--0--0--0--0--0--0-0--0--0--0-0-0-----------------------------|
A|---------------------------------------------------------------------------|
E|-7--7--5--5--9--9--2--2--3--3----3--3--3----3------------------------------|X4

[Chorus]

In this part, you change to 6th on "see" and to 1st fret on "me"
-------------------------------------------------------------------------------------------------------------|
-------------------------------------------------------------------------------------------------------------|
-------------------------------------------------------------------------------------------------------------|
--0---0---0---0-0---0-0---0---0---0---0---0-----0-----0---0---0---0---0---0---0---0---0---0--0---0-0---0--0--|
-----------------------------------------------------------------------------------------------------------|X2
2---2---3---3-----3-----3---5---5---7---7-----7-----7---7---7---7---6---6---6---6---1---1---5--5-----5---5---|

[Verse 2]

e|---------------------------------------------------------------------------|
B|---------------------------------------------------------------------------|
G|---------------------------------------------------------------------------|
D|---0---0-0---0---0---0-0---0---0---0-0---0---0---0-0-----------------------|
A|---------------------------------------------------------------------------|
E|-5---5-----5---7---7-----7---2---2-----2---3---3-----3---------------------|X4


[Pre-Chorus]

e|---------------------------------------------------------------------------|
B|---------------------------------------------------------------------------|
G|---------------------------------------------------------------------------|
D|---0--0--0--0--0--0--0--0--0--0-0--0--0--0-0-0-----------------------------|
A|---------------------------------------------------------------------------|
E|-7--7--5--5--9--9--2--2--3--3----3--3--3----3------------------------------|X4

[Chorus]

In this part, you change to 6th on "see" and to 1st fret on "me"
-------------------------------------------------------------------------------------------------------------|
-------------------------------------------------------------------------------------------------------------|
--0---0---0---0-0---0-0---0---0---0---0---0-0---0-0---0---0---0---0---0---0---0---0---0---0--0---0-0---0--0--|
-------------------------------------------------------------------------------------------------------------|
2---2---3---3-----3-----3---5---5---7---7-----7-----7---7---7---7---6---6---6---6---1---1---5--5-----5---5---|

[Middle 8] (I won't take no)

e|---------------------------------------------------------------------------|
B|---------------------------------------------------------------------------|
G|---------------------------------------------------------------------------|
D|---0---0-0---0---0---0-0---0---0---0-0---0---0---0-0-----------------------|
A|---------------------------------------------------------------------------|
E|-5---5-----5---7---7-----7---2---2-----2---3---3-----3---------------------|X4


[Pre-Chorus]

e|---------------------------------------------------------------------------|
B|---------------------------------------------------------------------------|
G|---------------------------------------------------------------------------|
D|---0--0--0--0--0--0--0--0--0--0-0--0--0-0--0-0-----------------------------|
A|---------------------------------------------------------------------------|
E|-7--7--5--5--9--9--2--2--3--3----3--3--3----3------------------------------|X4

[Chorus]

In this part, you change to 6th on "see" and to 1st fret on "me"
-------------------------------------------------------------------------------------------------------------|
-------------------------------------------------------------------------------------------------------------|
-------------------------------------------------------------------------------------------------------------|
--0---0---0---0-0---0-0---0---0---0---0---0-0---0-0---0---0---0---0---0---0---0---0---0---0--0---0-0---0--0--|
----------------------------------------------------------------------------------------------------------|X2
2---2---3---3-----3-----3---5---5---7---7-----7-----7---7---7---7---6---6---6---6---1---1---5--5-----5---5---|

            
            
Suggest correction
Creating personal tab
Creating personal tab
You can edit any tab online and save it as your Personal.

You can edit, replace or remove any tab part or add personal notes – all changes will be seen only by you.

Personal tabs can be accessed anytime from any device, even offline.
Learn more »
There is a new version of this tab from today which you may like more. Go check it out:
comments
print report bad tab
4 comments total. Showing first comments.
+1 reply
annie-angel 132 Jan 09, 2017 12:41 PM

now i finally understood how to play this
thanks a lot! <3

+1 reply
reillyragot 10 May 01, 2017 07:23 PM

V1 is a great tab and explanation of this song from the video that Dodie did, but this version gets that doubled note of the D string that V1 missed out on and it's definitely a part of what makes the song so it should be included when learning! Good job to both authors!!

0 reply
helenebruunpetersen 10 Aug 24, 2017 02:02 PM

Thanks this is awesome

guest
You may want to rate the tab now too:
select rating
Wanna post a correction for this tab? Suggest correction