Oops, an error
Loading. Please wait.

Sick Of Losing Soulmates ukulele

version 6
version 6

Whole song

  • Exact chords taken straight from her tutorial and ... Show more
  • Tab transcribed from guitar to ukulele.
  • The string order and the octaves are a little bit ... Show more
382 views 54 this week
no commentswrite comment
1 2 3 4 5
3 more votes to show rating
add to favorites
×
Save as Personal and add changes to this tab that will be seen only by you. Learn more ›
×
You can save this tab as Personal to edit and correct it or add notes. All changes will be seen only by you. Learn more »
launch autoscroll
font size
0
reset
transpose
0
reset
display chords
guitar tuner
edit
Autoscroll
slow
fast
+/-
esc
set tempo
stop
About this tab version
The string order and the octaves are a little bit dife, but the actual notes are still the same as in the original guitar version. The only difference is in the chorus when it stays on 4 because with the capo you can't drop down to -1. Was this info helpful? Yes No
Strumming
There is no strumming pattern for this song yet. and get +5 IQ
[Intro & Verse]
A|----------------------------------------------------------------|
E|3---3---3---3---5---5---5---5---0---0---0---0---1---1---1---1---|
C|--0---0---0---0---0---0---0---0---0---0---0---0---0---0---0---0-|
G|----------------------------------------------------------------|

What a strange being you are,
God knows where I'd be
If you hadn't found me,
sitting all alone in the dark

A dumb screenshot of youth
Watch how a cold broken teen
Will desperately lean upon a superglued human of proof

[Pre-Chorus]
A|----------------------------------------------------------------|
E|5---5---3---3---7---7---0---0---1---1---1---1---1---1---1---1---|
C|--0---0---0---0---0---0---0---0---0---0---0---0---0---0---0---0-|
G|----------------------------------------------------------------|

What the hell would I be,
without you
Brave face talk so lightly,
hide the truth

[Chorus]
A|----------------------------------------------------------------------|
E|0---0---1---1---1---1---1---1---3---3---5---5---5---5---5---5---5---5-|
C|--0---0---0---0---0---0---0---0---0---0---0---0---0---0---0---0---0---|
G|----------------------------------------------------------------------|

A|------------------------------------------------------------------|
E|--4---4---4---4---4---4---4---4---3---3---3---3---3---3---3---3---|
C|0---0---0---0---0---0---0---0---0---0---0---0---0---0---0---0---0-|
G|------------------------------------------------------------------|

Now I'm sick of losing soulmates,
so where do we begin
I can finally see, you're as fucked up as me
So how do we win?

I'm sick of losing soulmates,
won't be alone again
I can finally see, you're a s fucked up as me
So how do we win?

[Verse 2]
A|----------------------------------------------------------------|
E|3---3---3---3---5---5---5---5---0---0---0---0---1---1---1---1---|
C|--0---0---0---0---0---0---0---0---0---0---0---0---0---0---0---0-|
G|----------------------------------------------------------------|

We will grow old as friends,
I've promised that before
So what's one more?
In our grey-haired circle, waiting for the end

Time and hearts wear us thin
So which path will you take,
cause we both know a break
Does exactly what it says on the tin

[Pre-Chorus]
A|----------------------------------------------------------------|
E|5---5---3---3---7---7---0---0---1---1---1---1---1---1---1---1---|
C|--0---0---0---0---0---0---0---0---0---0---0---0---0---0---0---0-|
G|----------------------------------------------------------------|

What the hell would I be,
without you
Brave face talk so lightly,
hide the truth

[Chorus]
A|----------------------------------------------------------------------|
E|0---0---1---1---1---1---1---1---3---3---5---5---5---5---5---5---5---5-|
C|--0---0---0---0---0---0---0---0---0---0---0---0---0---0---0---0---0---|
G|----------------------------------------------------------------------|

A|------------------------------------------------------------------|
E|--4---4---4---4---4---4---4---4---3---3---3---3---3---3---3---3---|
C|0---0---0---0---0---0---0---0---0---0---0---0---0---0---0---0---0-|
G|------------------------------------------------------------------|

Now I'm sick of losing soulmates,
so where do we begin
I can finally see, you're as fucked up as me
So how do we win?

I'm sick of losing soulmates,
won't be alone again
I can finally see, you're a s fucked up as me
So how do we win?

[Bridge]
A|----------------------------------------------------------------|
E|3---3---3---3---5---5---5---5---0---0---0---0---1---1---1---1---|
C|--0---0---0---0---0---0---0---0---0---0---0---0---0---0---0---0-|
G|----------------------------------------------------------------|

I won't take no for an answer (I won't take no for an answer)
I won't take no for an answer (I won't take no for an answer)
I won't take no (I won't take no)
I won't take no (I won't take no)

[Pre-Chorus]
A|----------------------------------------------------------------|
E|5---5---3---3---7---7---0---0---1---1---1---1---1---1---1---1---|
C|--0---0---0---0---0---0---0---0---0---0---0---0---0---0---0---0-|
G|----------------------------------------------------------------|

What the hell would I be,
without you
Brave face talk so lightly,
hide the truth

[Chorus]
A|----------------------------------------------------------------------|
E|0---0---1---1---1---1---1---1---3---3---5---5---5---5---5---5---5---5-|
C|--0---0---0---0---0---0---0---0---0---0---0---0---0---0---0---0---0---|
G|----------------------------------------------------------------------|

A|------------------------------------------------------------------|
E|--4---4---4---4---4---4---4---4---3---3---3---3---3---3---3---3---|
C|0---0---0---0---0---0---0---0---0---0---0---0---0---0---0---0---0-|
G|------------------------------------------------------------------|

Now I'm sick of losing soulmates,
so where do we begin
I can finally see, you're as fucked up as me
So how do we win?

I'm sick of losing soulmates,
won't be alone again
I can finally see, you're a s fucked up as me
So how do we win?
Suggest correction
Creating personal tab
Creating personal tab
You can edit any tab online and save it as your Personal.

You can edit, replace or remove any tab part or add personal notes – all changes will be seen only by you.

Personal tabs can be accessed anytime from any device, even offline.
Learn more »
Give kudos to tab author, rate the tab!
1 2 3 4 5
comments
print report bad tab
guest
You may want to rate the tab now too:
select rating
Wanna post a correction for this tab? Suggest correction