Oops, an error
Loading. Please wait.

This Is For Me tab

3,811 views 33 this week
3 commentsread comments
1 2 3 4 5
x 10
add to favorites
×
Save as Personal and add changes to this tab that will be seen only by you. Learn more ›
×
You can save this tab as Personal to edit and correct it or add notes. All changes will be seen only by you. Learn more »
launch autoscroll
font size
0
reset
how to read this tab
guitar tuner
edit
Autoscroll
slow
fast
+/-
esc
set tempo
stop
Author
Unregistered
Tuning: standard EADGBe


[Intro/Verse 1]

empty my mind
write me a line
e|---------------------------------------------------------|
B|----0--0--0------0--0--0------0--0--0------0--0--0-------|
G|----0--0--0------0--0--0------0--0--0------0--0--0-------|(repeated)
D|-0------------2------------4------------2----------------|
A|---------------------------------------------------------|
E|---------------------------------------------------------|


[Chorus 1]

i know who i am 
and what i do
e|---------------------------------------------------------|
B|-----1--1--1-----1--1--1------1--1--1------1--1--1-------|
G|-----0--0--0-----0--0--0------2--2--2------2--2--2-------|
D|--2-----------2------------2------------2----------------|
A|---------------------------------------------------------|
E|---------------------------------------------------------|


[Verse 2]

all these nightmares
gotta go somewhere
e|---------------------------------------------------------|
B|----0--0--0------0--0--0------0--0--0------0--0--0-------|
G|----0--0--0------0--0--0------0--0--0------0--0--0-------|(repeated)
D|-0------------2------------4------------2----------------|
A|---------------------------------------------------------|
E|---------------------------------------------------------|


[Chorus 2]

time to use my words
this is what i do 
e|-------------3-------------------------------------------|
B|-----1-------1-------------------------------------------|
G|-----0-------0-------------------------------------------|
D|-----2-------1-------------------------------------------|
A|---------------------------------------------------------|
E|---------------------------------------------------------|


[Verse 3]

i am not wrong
there is no wrong

e|---------------------------------------------------------|
B|----0--0--0------0--0--0------0--0--0------0--0--0-------|
G|----0--0--0------0--0--0------0--0--0------0--0--0-------|(repeated)
D|-0------------2------------4------------2----------------|
A|---------------------------------------------------------|
E|---------------------------------------------------------|


[Chorus 3]

turn on the tap
till the water runs clear
e|---------------------------------------------------------|
B|-----1--1--1-----1--1--1------1--1--1------1--1--1-------|
G|-----0--0--0-----0--0--0------2--2--2------2--2--2-------|
D|--2-----------2------------2------------2----------------|
A|---------------------------------------------------------|
E|---------------------------------------------------------|


[Verse 4]

this is for me
yet here you'll be

e|---------------------------------------------------------|
B|----0--0--0------0--0--0------0--0--0------0--0--0-------|
G|----0--0--0------0--0--0------0--0--0------0--0--0-------|(repeated)
D|-0------------2------------4------------2----------------|
A|---------------------------------------------------------|
E|---------------------------------------------------------|


[Chorus 4]

watch me overthink
and disappear
e|---7-------7---------------------------------------------|
B|---5-------7---------------------------------------------|
G|---5-------7---------------------------------------------|
D|---5-------9---------------------------------------------|
A|---------------------------------------------------------|
E|---------------------------------------------------------|


[Verse 5/Outro]

mmmmmmmmm
mmmmmmmmm

e|---------------------------------------------------------|
B|----0--0--0------0--0--0------0--0--0------0--0--0-------|
G|----0--0--0------0--0--0------0--0--0------0--0--0-------|(repeated)
D|-0------------2------------4------------2----------------|
A|---------------------------------------------------------|
E|---------------------------------------------------------|


[Ending]

e|---------------------------------------------------------|
B|----0--0--0------0--0--0------0--0--0--------------------|
G|----0--0--0------0--0--0------0--0--0--------------------| 
D|-0------------2------------4------------2----------------|
A|---------------------------------------------------------|
E|---------------------------------------------------------|

            
            
Suggest correction
Creating personal tab
Creating personal tab
You can edit any tab online and save it as your Personal.

You can edit, replace or remove any tab part or add personal notes – all changes will be seen only by you.

Personal tabs can be accessed anytime from any device, even offline.
Learn more »
comments
print report bad tab
3 comments total.
+5 reply
shantahir0 10 Sep 08, 2016 10:35 AM

can you make a version of this for ukulele please?

guest
Wanna post a correction for this tab? Suggest correction