Oops, an error
Loading. Please wait.

You tab

version 1
version 1

Whole song

  • She does it on a baritone ukulele, but that is the... Show more
1,036 views 126 this week
no commentswrite comment
1 2 3 4 5
x 3
add to favorites
×
Save as Personal and add changes to this tab that will be seen only by you. Learn more ›
×
You can save this tab as Personal to edit and correct it or add notes. All changes will be seen only by you. Learn more »
launch autoscroll
font size
0
reset
how to read this tab
guitar tuner
edit
Autoscroll
slow
fast
+/-
esc
set tempo
stop
Author
Difficulty
About this tab version
She does it on a baritone ukulele, but that is the first four strings of a guitar, so I tabbed it like a guitar. I got a lot of it from just looking at her hand in the video (https://www.youtube.com/watch?v=pfObl16Jjr8). I also included the chords used in the beginning because I know some people prefer to practice the chord shapes first. Was this info helpful? Yes No
Chords Used:
   Bb^7 Bb6  Cm7  Adim
e|--5----3----6----5---|
B|--3----3----4----4---|
G|--3----3----5----5---|
D|--3----3----5----x---|
A|---------------------|
E|---------------------|
    Bb7   Eb  F#dim  Gm   Em7b5  Eb    F
e|--4-----3----2-----3-----3-----3-----5---|
B|--3-----4----1-----3-----3-----4-----6---|
G|--3-----3----2-----3-----3-----3-----5---|
D|--3-----x----x-----x-----2-----x-----x---|
A|-----------------------------------------|
E|-----------------------------------------|

[Intro]
   Bb^7     Bb6
e|--5-------3-------|
B|--3-------3-------|
G|--3-------3-------|
D|--3-------3-------|
A|------------------|
E|------------------|

[Verse 1]
   Bb^7    Bb6                               Cm7    Adim
e|--5-------3---------------------------------6------5---------------------------|
B|--3-------3---------------------------------4------4---------------------------|
G|--3-------3---------------------------------5------5---------------------------|
D|--3-------3---------------------------------5------x---------------------------|
A|-------------------------------------------------------------------------------|
E|-------------------------------------------------------------------------------|
I told you I was looking for some empathy          Well you fooled me
Just a touch and a thought and I was gone.
And now someone's gonna get to know the better you
When I was supposed to
Oh, oh, oh why did it have to be you.
I guess
now the next time there's an opportunity
I'll tread more carefully 
My heart's running out of cellotape
You know
How is it I've never felt that way before
I was so sure
Oh, oh, oh it wasn't going to be you

[Bridge]
   Bb7   Eb             F#dim
e|--4-----3---------------2----|
B|--3-----4---------------1----|
G|--3-----3---------------2----|
D|--3-----x---------------x----|
A|-----------------------------|
E|-----------------------------|
          Why do all the red flags

       Gm                   Em7b5    Eb                F
e|------3---------------------3------3-----------------5-------------------------|
B|------3---------------------3------4-----------------6-------------------------|
G|------3---------------------3------3-----------------5-------------------------|
D|------x---------------------2------x-----------------x-------------------------|
A|-------------------------------------------------------------------------------|
E|-------------------------------------------------------------------------------|
  Just look like so much fun,  oh    I have a habit of searching for the damage to


   Bb^7           Bb7   Eb                  F#dim
e|--5-------------4-----3--------------------2---------|
B|--3-------------3-----4--------------------1---------|
G|--3-------------3-----3--------------------2---------|
D|--3-------------3-----x--------------------x---------|
A|-----------------------------------------------------|
E|-----------------------------------------------------|
   Share my love            I promised to be numb but

    Gm                  Em7b5    Eb              F#dim
e|--3--------------------3-------3----------------2----2-x---|
B|--3--------------------3-------4----------------1----1-x---|
G|--3--------------------3-------3----------------2----2-x---|
D|--x--------------------2-------x----------------x----x-x---|
A|-----------------------------------------------------------|
E|-----------------------------------------------------------|
   Somehow you were the one      Now to unwind    Months

        Bb^7     Bb6
e|-------5-------3-------|
B|-------3-------3-------|
G|-------3-------3-------|
D|-------3-------3-------|
A|-----------------------|
E|-----------------------|
    of a good time

[Verse 2]
   Bb^7    Bb6          Cm7         Adim
e|--5-------3------------6------------5-----------------|
B|--3-------3------------4------------4-----------------|
G|--3-------3------------5------------5-----------------|
D|--3-------3------------5------------x-----------------|
A|------------------------------------------------------|
E|------------------------------------------------------|
People will tell me that I messed up, And it wasn't love
And I'm secretly hoping they are right, because
Whatever it was it was wonderful
But non functional
Oh
I really hope I don't love you

OOOoOOOOooOOooOOohhhh
ahhHOOOOOOOOOHHH MMmmMMmm

************************************

| x   Dead note

************************************

            
            
Suggest correction
Creating personal tab
Creating personal tab
You can edit any tab online and save it as your Personal.

You can edit, replace or remove any tab part or add personal notes – all changes will be seen only by you.

Personal tabs can be accessed anytime from any device, even offline.
Learn more »
Give kudos to tab author, rate the tab!
1 2 3 4 5
comments
print report bad tab
guest
You may want to rate the tab now too:
select rating
Wanna post a correction for this tab? Suggest correction