Oops, an error
Loading. Please wait.

Smoorverliefd chords

version 2
version 2

Whole song

Interactive

391 views 6 this week
no commentswrite comment
1 2 3 4 5
3 more votes to show rating
add to favorites
×
Save as Personal and add changes to this tab that will be seen only by you. Learn more ›
×
You can save this tab as Personal to edit and correct it or add notes. All changes will be seen only by you. Learn more »
launch autoscroll
font size
0
reset
transpose
0
reset
display chords
guitar tuner
edit
Autoscroll
slow
fast
+/-
esc
set tempo
stop
Author
Strumming
There is no strumming pattern for this song yet. and get +5 IQ
[Intro]

Am


[Verse]

C    Bb F    C      Bb  F
Mijn oh mijn oeh ik heb pijn
C Bb   F        E              F       G        Am
O zo'n pijn tot over mijn oren smoorverliefd op jou
C    Bb F     C       Bb   F       C   Bb   F
Keer op keer stort ik weer neer ik kan niet meer
    E              F       G        Am
Tot over mijn oren smoorverliefd op jou


[Chorus]

C       G        Bb              F      C     G
Veel te vrij wat moet ik met een meisje zoals jij
C       G       Bb           F
Veel te vrij je hebt niemand nodig
    E             F       G        C
Tot over z'n oren smoorverliefd op jou
            Am
ohooh ohooh ooh


[Interlude]

Am


[Verse]

   C   Bb F     C      Bb  F         C    Bb F
Ik ben verward voel es m'n hart gaat veel te hard
    E             F       G        Am
Tot over m'n oren smoorverliefd op jou
   C    Bb F    C    Bb  F
Ik voel me rot ik ga ka- pot
   C    Bb  F       E             F       G        Am
Ik lijk wel zot tot over m'n oren smoorverliefd op jou


[Chorus]

C       G        Bb              F      C     G
Veel te vrij wat moet ik met een meisje zoals jij
C       G       Bb           F
Veel te vrij je hebt niemand nodig
    E             F       G        C
Tot over z'n oren smoorverliefd op jou


[GUITAR SOLO]

Am       G          3x
E
F    G

TABS

E|--------------------------------------------------------------------------------------|
B|--5-----------------------------5-----------------------------------5-----------------|
G|--------------------5--------------------------------4--5--4--5--4--------------------|
D|-----7--7--7--5--7-----7--7--7-----6--6--6--4--6--7--------------------7--7--7--5--7--|
A|--------------------------------------------------------------------------------------|
E|--------------------------------------------------------------------------------------|

E|-----------------------------------------------3--5--3--------------------|
B|--------------5-----------------------------5-----------5-----------------|
G|--5--------------------------------4--5--7--------------------------------|
D|-----7--7--7-----6--6--6--4--6--7--------------------------7--7--7--5--7--|
A|--------------------------------------------------------------------------|
E|--------------------------------------------------------------------------|

E|--------------------------------|
B|--------------5-----------------|
G|--5-----------------------------|
D|-----7--7--7-----6--6--6--4--6--|
A|--------------------------------|
E|--------------------------------|

E|--------------|
B|--------------|
G|--5-5--7-7----|
D|--5-5--7-7----|
A|--------------|
E|--------------|


[Chorus]

C       G        Bb              F      C     G
Veel te vrij wat moet ik met een meisje zoals jij
C       G       Bb           F
Veel te vrij je hebt niemand nodig
    E             F       G        C
Tot over z'n oren smoorverliefd op jou


[BRIDGE/OUTRO]

   Am                 G
Ik lijk wel zot en ik voel me rot
E             F       G                10x
Liefde is een vreemde ziekte
Suggest correction
Creating personal tab
Creating personal tab
You can edit any tab online and save it as your Personal.

You can edit, replace or remove any tab part or add personal notes – all changes will be seen only by you.

Personal tabs can be accessed anytime from any device, even offline.
Learn more »
Give kudos to tab author, rate the tab!
1 2 3 4 5
comments
print report bad tab
guest
You may want to rate the tab now too:
select rating
Wanna post a correction for this tab? Suggest correction