Oops, an error
Loading. Please wait.

Dawn Of The Dead bass

version 1
version 1

Whole song

Interactive

2,400 views 6 this week
no commentswrite comment
1 2 3 4 5
x 3
add to favorites
×
Save as Personal and add changes to this tab that will be seen only by you. Learn more ›
×
You can save this tab as Personal to edit and correct it or add notes. All changes will be seen only by you. Learn more »
launch autoscroll
font size
0
reset
guitar tuner
edit
Autoscroll
slow
fast
+/-
esc
set tempo
stop
14/05/2010 at 03:15am - Mr.Gav

Artist: Does It Offend You, Yeah?
Track: Dawn of the Dead

Intro:(x1)
G|-------------------------------------------------------------------------|
D|-------------------------------------------------------------------------|
A|-------------------------------------------------------------------------|
D|-4-4-6--1-1-1-2--1-2-2-2--2--0-1-2/-8-8-9--4-4-6--1-2-2p1h2-2--1h2-1h2p1-|

Verses:(x2)
G|-------------------------------------------------------------------------|
D|-------------------------------------------------------------------------|
A|-------------------------------------------------------------------------|
D|-4-4-6--1-1-1-2--1-2-2-2--2--0-1-2/-8-8-9--4-4-6--1-2-2p1h2-2--1h2-1h2p1-|

Pre Chorus:(x1)
G|-------------------------------------------------------------------------|
D|-------------------------------------------------------------------------|
A|-------------------------------------------------------------------------|
D|-4444-6666-1111-2222-1-2222222222222222-8888-9999-4444-6666-1h2222222222-|

Chorus:(x1)
G|------------------------------------------------------------------|
D|---4---6-------------------------------8---9\---4-----------------|
A|------------------------------------------------------------------|
D|-4---6---1-1-1-2-2--1-2--2--2-2--2--/8---9----4---(6)--2-2--2-2-2-|
   s p s p                             s p s p  s p 

Verse again followed by chorus.

Bridge*:(x1)
G|-------------------------------------------------------------------------|
D|-------------------------------------------------------------------------|
A|-------------------------------------------------------------------------|
D|-4444/6666\1111/2222\1/2222222222222222/8888/9999\4444/6666\1h2222222222-|

This is then followed by the pre-chorus and chorus, each being played once.


*the bass is being played quietly within the first half of the bridge.

            
            
Suggest correction
Creating personal tab
Creating personal tab
You can edit any tab online and save it as your Personal.

You can edit, replace or remove any tab part or add personal notes – all changes will be seen only by you.

Personal tabs can be accessed anytime from any device, even offline.
Learn more »
Give kudos to tab author, rate the tab!
1 2 3 4 5
comments
print report bad tab
guest
You may want to rate the tab now too:
select rating
Wanna post a correction for this tab? Suggest correction