Oops, an error
Loading. Please wait.

Small Town Boy Tab

470 views 1 this week
no commentswrite comment
1 2 3 4 5
please rate
add to favorites
launch autoscroll
font size
0
reset
how to read this tab
guitar tuner
Autoscroll
slow
fast
+/-
esc
set tempo
stop
Help us to improve Ultimate-Guitar.com Take our survey!
×
Author
Difficulty
novice
This is an awesome song by a small band. If you like this song then I would 
recommend the entire album, its epic. I am 99% sure this is all right.
The bass line is real simple so here it is
Bass Intro
G----------------------------------------|
D----------------------------------------|
A----------------------------------------|
E------7--7----7--7----7--7-----7--7-----|
The bass plays this part for the rest it cuts out for a while and changes rhythm 
but you can figure that out easy.
G----------------------------------------------|
D----------------------------------------------|
A------------------------7--7---5--5-----------|
E------7--7----5--5----------------------------|
This part comes in after the build up
G----------------------------------------------------------|
D----------------------------------------------------------|
A---------------------55555555---77777777------------------|
E------77777777---------------------------------33333333---|
Solo section
G------------------------------------------------------------------------|
D------------------------------------------------------------------------|
A-------------------------------------7777777----5555555-----------------|
E------77757977--55555353--------------------7-----------5---------------|

The Guitar part is super easy too
This is the piano part that is played over the bass lick
e---------------------------------------------------------------------|
B-----15-15-14------------15-15-14-------15-15-14------15----15---17--|
G----------------14---------------------------------------------------|
D----------------------------------14-------------12------------------|
A---------------------------------------------------------------------|
E---------------------------------------------------------------------|

Guitar 
e---------------------------------------------------------|
B--------------------------------8---8-----7----7---------| X5
G--------7-----7------6----6-----9---9-----7----7---------|
D--------9-----9------7----7-----9---9-----7----7---------|
A--------9-----9------7----7-----7---7-----5----5---------|
E--------7-----7------5----5------------------------------|
  on the last one play one D and hold it

e---------------------------------------------------------------|
B----------------------8888888--7777777-------------------------|X4
G----77777777-66666666-9999999--7777777-------------------------|
D----99999999-77777777-9999999--7777777-------------------------|
A----99999999-77777777-7777777--5555555-------------------------|
E----77777777-55555555--------7--------5------------------------|

 all pm and build


e----77777777----------77777777-33333333----------------------|
B----77777777-77777777-88888888-33333333----------------------|X4
G----77777777-77777777-99999999-44444444----------------------| 
D----99999999-77777777-99999999-55555555----------------------|
A----99999999-55555555-77777777-55555555----------------------|
E----77777777-------------------33333333----------------------|

e--------7\-|
B--------7\-| 
G--------7\-|
D--------9\-|
A--------9\-|
E--------7\-|

Goes back to bass then this

e------7~--------------7~------------7~------------5~---------77777777----------------------|
B------8~--------------7~------------7~------------5~---------99999999-77777777-------------| 
G------9~--------------7~------------7~------------6~---------99999999-77777777-------------|
D------9~--------------7~------------9~------------7~---------99999999-77777777-------------|
A------7~--------------5~------------9~------------7~---------77777777-55555555-------------|
E------------------------------------7~------------5~---------------------------------------|

Solo!
e--------------------------------------------------------------------------------|
B--------------------------------------------------------------------------------|
G---15--15--15--15--15--15--15--15--15--15--15--15-------------------------------|
D---15^-15^-15^-15^-15^-15^-15^-15^-15^-15^-15^-15^--14--14--12-11\--------------|
A--------------------------------------------------------------------------------|
E--------------------------------------------------------------------------------|

e---------------------------------------------------------------------------|
B---------------------------------------------------------------------------|
G---------------------------------------------------------------------------|
D--15^--17^--19^--21^--15^--17^--19^--21^--22^22^22^22^22^22^22^22^22^~~~~~\|
A---------------------------------------------------------------------------|
E---------------------------------------------------------------------------|

e---------------------------------------------------------------------------------------|
B---------------------------------------------------------------------------------------|
G---------------------------------------------------------------------------------------|
D---22^~~~21~~~~~22^~~~~~21~~~~~~22^-21-22^-21-22^-21-22^-21-22^-21-22^-21-22^-21-22^-21|
A---------------------------------------------------------------------------------------|
E---------------------------------------------------------------------------------------|
tremolo picked------------------|

e-----------------------------------------|
B-----------------------------------------|
G-----------------------------------------|
D---19~~~~~~~~~~~~~~~~~~~~~~~~~~~~~~~~~~~~|
A-----------------------------------------|
E-----------------------------------------|
All tremolo picked

e----77777777-55555555-7777777----------------------------------|
B----77777777-55555555-8888888--7777777-------------------------|X4
G----77777777-66666666-9999999--7777777-------------------------| 
D----99999999-77777777-9999999--7777777-------------------------|
A----99999999-77777777-7777777--5555555-------------------------|
E----77777777-55555555------------------------------------------|
 On the third and fourth time though a second guitar plays throughout the riff
e-----------------------------------------|
B-----------------------------------------|
G-----------------------------------------|
D---21~~~~~~~~~~~~~~~~~~~~~~~~~~~~~~~~~~~~|
A-----------------------------------------|
E-----------------------------------------|

e---------------------7~----------------------------------------|
B---7---7---7-7-7-7---7~----------------------------------------|
G---7--7----7-7-7-7---7~----------------------------------------|
D---7--7----7-7-7-7---9~----------------------------------------|
A---5--5----5-5-5-5---9~----------------------------------------|
E---------------------7~----------------------------------------|

Key 
~ sustain
^bend up half step
\slide down

Tabbed by Calvingoc
Suggest correction
Give kudos to tab author, rate the tab!
1 2 3 4 5
comments
print report bad tab
guest
You may want to rate the tab now too:
select rating
Wanna post a correction for this tab? Suggest correction