Oops, an error
Loading. Please wait.

Rome Tab

115 views 1 this week
no commentswrite comment
1 2 3 4 5
please rate
add to favorites
launch autoscroll
font size
0
reset
how to read this tab
guitar tuner
Autoscroll
slow
fast
+/-
esc
set tempo
stop
Help us to improve Ultimate-Guitar.com Take our survey!
×
Author
Tuning
nnsahco 216
D# G# C# F# A# D#
-------------------------------------------------------------------------------
                             ROME - Dog Day
-------------------------------------------------------------------------------
Tabbed by: Brandon MacGregor
Email: brandonmacgregor@live.ca

Tuning:Down one half step
Eb Ab Db Gb Bb Eb (low to high)

Order:
intro x 1
verse + chorus x 2
drum break
main riff
outro

Intro:
e|---------------------|  x 4
B|---------------------|
G|-------------14------|
D|-12-12-12-12-12------|
A|-0--0--0--0----------|
E|---------------------|

------------------------------
Main riff / verse:
e|------------------------------------------------------------------|
B|------------------------------------------------------------------|
G|-------------14------------------14p0------------7-----------9p0--|
D|-12-12-12-12-12------12-12-12-12-12--------------0-----------0----|
A|-0--0--0--0----------0--0--0--0----------7-7-7-7-----7-7-7-7------|
E|------------------------------------------------------------------|

e|---------------------------------------------------------------------------| x6
B|---------------------------------------------------------------------------|
G|-----------9----------11p0---------7------------9p0------------------------|
D|-----------0----------0------------0------------0----11--9--7--9-----------|
A|---9-9-9-9----9-9-9-9------7-7-7-7-----7-7-7-7-------0---------------------|
E|---------------------------------------------------------------------------|

e|--------------| x 7
B|--------------|
G|------0-0-----|
D|--7-7-7-7-----|
A|--0-0-0-0-----|
E|--------------|
             
 chorus-y thing                                                 variations on this part
e|--------------------------------------------------------------------------------------|
B|--------------------------------------------------------------------------------------|
G|--------------------------------------------------------------------------------------|
D|--------------------------------------------------------------------------------------|
A|-9-7-5-7--------12-12-10-10-9-9-9-9-9-9-9-7-5-7--------12-12-10-10-9-9-7-7-7-7-9-7-5-7|
E|---------10-10-----------------------------------10-10--------------------------------|

e|----------------------|   repeat verse
B|----------------------|
G|-------0--------------|
D|-----0---0------------|
A|--2--------2--4~------|
E|----------------------|

--------------------------------------------------------------

guitar "solo": (over top of "chorus") 2:51
e|-----------------------------------------------------------------------------------| x2
B|-----------------------------------------------------------------------------------|
G|-----------------------------------------------------------------------------------|
D|---------12-------12------12------12------14------14------14------14----12-----12--|
A|------9--------9--------9-------9-------9-------9-------9------9-------9-----9-----|
E|---10-------10-------10------10------10------10------10-----10------10----10-------|



-----------------------------------------------------------------

outro:

e|-----------------------------------------------------------------| x a bunch
B|-----------------------------------------------------------------|
G|-----------14~-----------14~-------------------------------------|
D|--12121212------12121212-----------------12~----------14~--------|
A|--0-0-0-0-------0-0-0-0------------------------------------------|
E|--------------------------------12121212-----12121212------------|

e|------------|   
B|------------|
G|------------|
D|--11-9-7-9--|
A|------------|
E|------------|   


e|--------------| x 6
B|--------------|
G|------0-0-----|
D|--7-7-7-7-----|
A|--0-0-0-0-----|
E|--------------|


end on 

e|-------|
B|-------|
G|--0----|
D|--7----|
A|--0----|
E|-------|



http://dogdaymusic.com/


************************************

| /   slide up
| \   slide down
| h   hammer-on
| p   pull-off
| ~   vibrato
| +   harmonic
| x   Mute note
| b   Bend
| pb  Pre-bend
| br  Bend release
| pbr Pre-bend release
| brb Bend release bend

************************************
Suggest correction
What's this?
You can suggest a correction to this tab. Community and Mods will review your correction and vote to approve or reject it.
comments
We did not receive enough feedback on this tab! Please rate:
print report bad tab
1 2 3 4 5
guest
You may want to rate the tab now too:
select rating
Please do not post tabs as comments. Select "correction" instead!