Oops, an error
Loading. Please wait.

Glockenspiel Song Tab

1,306 views 3 this week
1 commentread comment
1 2 3 4 5
accurate
x 3
add to favorites
launch autoscroll
font size
0
reset
how to read this tab
guitar tuner
Tab Pro tools
  • play this tab
  • loop segment
  • change instrument
  • show fretboard
  • metronome
×
Best way to learn
"Glockenspiel Song"
Autoscroll
slow
fast
+/-
esc
set tempo
stop
Contributor
---------------------------------
-DOG IS DEAD - Glockenspiel Song-
---------------------------------

Tuning: Standard

Intro x2

E|-------------------------------------------------|
H|-------9---12-9----------------9---12-9----------|
G|-----9---9------11-11-9------9---9------11-11-9--|
D|--11----------------------11---------------------|
a|-------------------------------------------------|
e|-------------------------------------------------|


E|-------------------------------------------------|
H|------9---12-9-------9-------9---12-9-------9----|
G|----9---9------11-11-------9---9------11-11------|
D|--9----------------------9-----------------------|
a|-------------------------------------------------|
e|-------------------------------------------------|

Verse (Not quite sure if it is correct, sorry. :/ )

E|-----------------------------------------------------------------------|
H|------------------------------------------9------9-9------9-----9-9-9--|
G|------------------------------------------9------9-9------9-----9-9-9--|
D|------------------------------------------9------9-9------9-----9-9-9--|
a|--7-7-7-7-6-6-6-6-9-9-9-9-11-11-11-11---7----7-7------7-7---7-7--------|
e|-----------------------------------------------------------------------|

   We'll     all      start      a           fire

  E|-------------------------------------------------------------------|
  H|--------------------------------------9------9-9------9-----9-9-9--|
  G|--------------------------------------9------9-9------9-----9-9-9--|
  D|--------------------------------------9------9-9------9-----9-9-9--|
  a|--6-6-6-6-4-4-4-4-2-2-2-2-0-0-0-0---7----7-7------7-7---7-7--------|
  e|-------------------------------------------------------------------|

If the bells   don't   ring in our home town

E|-----------------------------------------------------------------------|
H|------------------------------------------9------9-9------9-----9-9-9--|
G|------------------------------------------9------9-9------9-----9-9-9--|
D|------------------------------------------9------9-9------9-----9-9-9--|
a|--7-7-7-7-6-6-6-6-9-9-9-9-11-11-11-11---7----7-7------7-7---7-7--------|
e|-----------------------------------------------------------------------|

    They're   just   cheats      and        liars

E|-------------------------------------------------------------------|
H|--------------------------------------9------9-9------9-----9-9-9--|
G|--------------------------------------9------9-9------9-----9-9-9--|
D|--------------------------------------9------9-9------9-----9-9-9--|
a|--6-6-6-6-4-4-4-4-2-2-2-2-0-0-0-0---7----7-7------7-7---7-7--------|
e|-------------------------------------------------------------------|

      They   will   serve     you     well

Pre-chorus

E|--9--------------7-----------------9-----------------------7----------7---|
H|--9--------------9-----------------9---------12-9----------9----------7---|
G|--9--------------9-----------------9--------------11-9-----9----------8---|
D|--11-------------9-----------------11----------------------9----------9---|
a|-----------------7-----------------------------------------7----------9---|
e|----------------------------------------------------------------------7---|

    Oh, are we so alive?      Are we so-o-o-o                 alive?

Chorus

    E|-------------------------------------------------|
    H|-------9---12-9----------------9---12-9----------|
    G|-----9---9------11-11-9------9---9------11-11-9--|
    D|--11----------------------11---------------------|
    a|-------------------------------------------------|
    e|-------------------------------------------------|

  Sooo

    E|-------------------------------------------------|
    H|------9---12-9-------9-------9---12-9-------9----|
    G|----9---9------11-11-------9---9------11-11------|
    D|--9----------------------9-----------------------|
    a|-------------------------------------------------|
    e|-------------------------------------------------|

  Sooo


    E|-------------------------------------------------|
    H|-------9---12-9----------------9---12-9----------|
    G|-----9---9------11-11-9------9---9------11-11-9--|
    D|--11----------------------11---------------------|
    a|-------------------------------------------------|
    e|-------------------------------------------------|

  Sooo

    E|-------------------------------------------------|
    H|------9---12-9-------9-------9---12-9-------9----|
    G|----9---9------11-11-------9---9------11-11------|
    D|--9----------------------9-----------------------|
    a|-------------------------------------------------|
    e|-------------------------------------------------|

  Sooo

Verse (Again.. Sorry...)

E|-----------------------------------------------------------------------|
H|------------------------------------------9------9-9------9-----9-9-9--|
G|------------------------------------------9------9-9------9-----9-9-9--|
D|------------------------------------------9------9-9------9-----9-9-9--|
a|--7-7-7-7-6-6-6-6-9-9-9-9-11-11-11-11---7----7-7------7-7---7-7--------|
e|-----------------------------------------------------------------------|

      Day - light  breaks and I'm in your arms again

E|-------------------------------------------------------------------|
H|--------------------------------------9------9-9------9-----9-9-9--|
G|--------------------------------------9------9-9------9-----9-9-9--|
D|--------------------------------------9------9-9------9-----9-9-9--|
a|--6-6-6-6-4-4-4-4-2-2-2-2-0-0-0-0---7----7-7------7-7---7-7--------|
e|-------------------------------------------------------------------|

  A     ti - ger     waiting to be tamed

E|-----------------------------------------------------------------------|
H|------------------------------------------9------9-9------9-----9-9-9--|
G|------------------------------------------9------9-9------9-----9-9-9--|
D|------------------------------------------9------9-9------9-----9-9-9--|
a|--7-7-7-7-6-6-6-6-9-9-9-9-11-11-11-11---7----7-7------7-7---7-7--------|
e|-----------------------------------------------------------------------|

We're beat down fingers and we're beat down toes And we're beat down singers in the beat down halls

     E|-------------------------------------------------------------------|
     H|--------------------------------------9------9-9------9-----9-9-9--|
     G|--------------------------------------9------9-9------9-----9-9-9--|  
     D|--------------------------------------9------9-9------9-----9-9-9--|
     a|--6-------4-------2-------0---------7----7-7------7-7---7-7--------|
     e|-------------------------------------------------------------------|

But till time    came     back   twice around

Pre-chorus

E|--9--------------7-----------------9-----------------------7----------7---|
H|--9--------------9-----------------9---------12-9----------9----------7---|
G|--9--------------9-----------------9--------------11-9-----9----------8---|
D|--11-------------9-----------------11----------------------9----------9---|
a|-----------------7-----------------------------------------7----------9---|
e|----------------------------------------------------------------------7---|

    Oh, are we so alive?      Are we so-o-o-o                 alive?

Chorus

    E|-------------------------------------------------|
    H|-------9---12-9----------------9---12-9----------|
    G|-----9---9------11-11-9------9---9------11-11-9--|
    D|--11----------------------11---------------------|
    a|-------------------------------------------------|
    e|-------------------------------------------------|

  Sooo

    E|-------------------------------------------------|
    H|------9---12-9-------9-------9---12-9-------9----|
    G|----9---9------11-11-------9---9------11-11------|
    D|--9----------------------9-----------------------|
    a|-------------------------------------------------|
    e|-------------------------------------------------|

  Sooo


    E|-------------------------------------------------|
    H|-------9---12-9----------------9---12-9----------|
    G|-----9---9------11-11-9------9---9------11-11-9--|
    D|--11----------------------11---------------------|
    a|-------------------------------------------------|
    e|-------------------------------------------------|

  Sooo

    E|-------------------------------------------------|
    H|------9---12-9-------9-------9---12-9-------9----|
    G|----9---9------11-11-------9---9------11-11------|
    D|--9----------------------9-----------------------|
    a|-------------------------------------------------|
    e|-------------------------------------------------|

  Sooo

Breakout 

E|--9-----------------------------------------------------------------7-----------------|
H|--9-----------------------------------------------------------------9-----------------|
G|--9-----------------------------------------------------------------9-----------------|
D|--11----------------------------------------------------------------9-----------------| x5
a|--------------------------------------------------------------------7-----------------|
e|--------------------------------------------------------------------------------------|

   Oh this town, it's so electric Since I got the feeling I can't shut down

E|--------------------------------------------------------------------------------------------------|
H|--9--9--9--9--9--9--9--9--12-12-12-12-9--9--9--9--9--9--9--9--9--9--9--9--9--9--9--9--9--9--9--9--|
G|--9--9--9--9--9--9--9--9--9--9--9--9--9--9--11-11-9--9--9--9--9--9--9--9--9--9--9--9--9--9--9--9--|
D|--11-11-11-11-11-11-11-11-11-11-11-11-11-11-11-11-9--9--9--9--9--9--9--9--9--9--9--9--9--9--9--9--|
a|--------------------------------------------------7--7--7--7--7--7--7--7--7--7--7--7--7--7--7--7--|
e|--------------------------------------------------------------------------------------------------|

   WE ARE A MESS!!

E|--------------------------------------------------------------------------------------------------|
H|--9--9--9--9--9--9--9--9--12-12-12-12-9--9--9--9--9--9--9--9--9--9--9--9--9--9--9--9--9--9--9--9--|
G|--9--9--9--9--9--9--9--9--9--9--9--9--9--9--11-11-9--9--9--9--9--9--9--9--9--9--9--9--9--9--9--9--|
D|--11-11-11-11-11-11-11-11-11-11-11-11-11-11-11-11-9--9--9--9--9--9--9--9--9--9--9--9--9--9--9--9--|
a|--------------------------------------------------7--7--7--7--7--7--7--7--7--7--7--7--7--7--7--7--|
e|--------------------------------------------------------------------------------------------------|

E|--------------------------------------------------------------------------------------------------|
H|--9--9--9--9--9--9--9--9--12-12-12-12-9--9--9--9--9--9--9--9--9--9--9--9--9--9--9--9--9--9--9--9--|
G|--9--9--9--9--9--9--9--9--9--9--9--9--9--9--11-11-9--9--9--9--9--9--9--9--9--9--9--9--9--9--9--9--|
D|--11-11-11-11-11-11-11-11-11-11-11-11-11-11-11-11-9--9--9--9--9--9--9--9--9--9--9--9--9--9--9--9--|
a|--------------------------------------------------7--7--7--7--7--7--7--7--7--7--7--7--7--7--7--7--|
e|--------------------------------------------------------------------------------------------------|

E|--------------------------------------------------------------------------------------------------|
H|--9--9--9--9--9--9--9--9--12-12-12-12-9--9--9--9--9--9--9--9--9--9--9--9--9--9--9--9--9--9--9--9--|
G|--9--9--9--9--9--9--9--9--9--9--9--9--9--9--11-11-9--9--9--9--9--9--9--9--9--9--9--9--9--9--9--9--|
D|--11-11-11-11-11-11-11-11-11-11-11-11-11-11-11-11-9--9--9--9--9--9--9--9--9--9--9--9--9--9--9--9--|
a|--------------------------------------------------7--7--7--7--7--7--7--7--7--7--7--7--7--7--7--7--|
e|--------------------------------------------------------------------------------------------------|

E|---------------------------------------------x----------------------------------------------------|
H|--9--9--9--9--9--9--9--9--12-12-12-12-9--9---x----9--9--9--9--9--9--9--9--9--9--9--9--9--9--9--9--|
G|--9--9--9--9--9--9--9--9--9--9--9--9--9--9---x----9--9--9--9--9--9--9--9--9--9--9--9--9--9--9--9--|
D|--11-11-11-11-11-11-11-11-11-11-11-11-11-11--x----9--9--9--9--9--9--9--9--9--9--9--9--9--9--9--9--|
a|---------------------------------------------x----7--7--7--7--7--7--7--7--7--7--7--7--7--7--7--7--|
e|---------------------------------------------x----------------------------------------------------|

                                             WOOO!!

E|--------------------------------------------------------------------------------------------------|
H|--9--9--9--9--9--9--9--9--12-12-12-12-9--9--9--9--9--9--9--9--9--9--9--9--9--9--9--9--9--9--9--9--|
G|--9--9--9--9--9--9--9--9--9--9--9--9--9--9--11-11-9--9--9--9--9--9--9--9--9--9--9--9--9--9--9--9--|
D|--11-11-11-11-11-11-11-11-11-11-11-11-11-11-11-11-9--9--9--9--9--9--9--9--9--9--9--9--9--9--9--9--|
a|--------------------------------------------------7--7--7--7--7--7--7--7--7--7--7--7--7--7--7--7--|
e|--------------------------------------------------------------------------------------------------|

E|---------------------------x-x--|T
H|--9---12--10--9----10--12--x-x--|H
G|--9------------------------x-x--|E
D|--11-----------------------x-x--|E
a|---------------------------x-x--|N
e|---------------------------x-x--|D

I hope you guys like it, it was pretty hard for me to tab this but I'm glad I made it.
If you have any questions or any ideas to make these tabs better, you can write me on 
                             twitter @martythesmarty1 x
comments
We did not receive enough feedback on this tab! Please rate:
print report bad tab
1 2 3 4 5
1 comment total.
0 reply
sinead-campion wrote on March 28 2014, 06:28 am

niiice job man

I want to post or [tab]
guest
You may want to rate the tab now too:
select rating
Please do not post tabs as comments. Select "correction" instead!