Oops, an error
Loading. Please wait.

And I Did Tab

37 views 1 this week
no commentswrite comment
1 2 3 4 5
2 more votes to show rating
add to favorites
launch autoscroll
font size
0
reset
how to read this tab
guitar tuner
Autoscroll
slow
fast
+/-
esc
set tempo
stop
Help us to improve Ultimate-Guitar.com Take our survey!
×
Author
Difficulty
novice
And I Did
Dog Party
'Til You're Mine (2016)

Standard Tuning


[Intro]

e|-----------------|-----------------|
B|-----------------|-----------------|
G|-----------------|-----------------|
D|-3-3-3-3-3-3-3-3-|-5---x-x---x-x---|
A|-3-3-3-3-3-3-3-3-|-5---x-x---x-x---|
E|-1-1-1-1-1-1-1-1-|-3---x-x---x-x---|

e|-----------------|-----------------|-----------------|-----------------|
B|-----------------|-----------------|-----------------|-----------------|
G|-5-5-5-5-5-5-5-5-|-5-5-5-5-5-5-5-5-|-5-5-5-5-5-5-5-5-|-5-5-5-5-5-5-5-5-|
D|-5-5-5-5-5-5-5-5-|-5-5-5-5-5-5-5-5-|-5-5-5-5-5-5-5-5-|-5-5-5-5-5-5-5-5-|
A|-3-3-3-3-3-3-3-3-|-3-3-3-3-3-3-3-3-|-3-3-3-3-3-3-3-3-|-3-3-3-3-3-3-3-3-|
E|-----------------|-----------------|-----------------|-----------------|


[Verse 1]

e|-----------------|-----------------|-----------------|-----------------|
B|-----------------|-----------------|-----------------|-----------------|
G|-5-5-5-5-5-5-5-5-|-----------------|-7-7-7-7-7-7-7-7-|-----------------|
D|-5-5-5-5-5-5-5-5-|-7-7-7-7-7-7-7-7-|-7-7-7-7-7-7-7-7-|-5-5-5-5-5-5-5-5-|
A|-3-3-3-3-3-3-3-3-|-7-7-7-7-7-7-7-7-|-5-5-5-5-5-5-5-5-|-5-5-5-5-5-5-5-5-|
E|-----------------|-5-5-5-5-5-5-5-5-|-----------------|-3-3-3-3-3-3-3-3-|(x2)

e|-----------------|-----------------|
B|-----------------|-----------------|
G|-7-7-7-7-7-7-7-7-|-----------------|
D|-7-7-7-7-7-7-7-7-|-5-5-5-5-5-5-5-5-|
A|-5-5-5-5-5-5-5-5-|-5-5-5-5-5-5-5-5-|
E|-----------------|-3-3-3-3-3-3-3-3-|(x4)


[Chorus]

e|-----------------|-----------------|-----------------|-----------------|
B|-----------------|-----------------|-----------------|-----------------|
G|-----------------|-----------------|-5-5-5-5-5-5-5-5-|-----------------|
D|-3-3-3-3-3-3-3-3-|-5-5-5-5-5-5-5-5-|-5-5-5-5-5-5-5-5-|-7-7-7-7-7-7-7-7-|
A|-3-3-3-3-3-3-3-3-|-5-5-5-5-5-5-5-5-|-3-3-3-3-3-3-3-3-|-7-7-7-7-7-7-7-7-|
E|-1-1-1-1-1-1-1-1-|-3-3-3-3-3-3-3-3-|-----------------|-5-5-5-5-5-5-5-5-|(x3)

e|-----------------|-----------------|
B|-----------------|-----------------|
G|-----------------|-----------------|
D|-3-3-3-3-3-3-3-3-|-5---x-x---x-x---|
A|-3-3-3-3-3-3-3-3-|-5---x-x---x-x---|
E|-1-1-1-1-1-1-1-1-|-3---x-x---x-x---|


[Post-Chorus]

e|-----------------|-----------------|-----------------|-----------------|
B|-----------------|-----------------|-----------------|-----------------|
G|-5-5-5-5-5-5-5-5-|-5-5-5-5-5-5-5-5-|-5-5-5-5-5-5-5-5-|-5-5-5-5-5-5-5-5-|
D|-5-5-5-5-5-5-5-5-|-5-5-5-5-5-5-5-5-|-5-5-5-5-5-5-5-5-|-5-5-5-5-5-5-5-5-|
A|-3-3-3-3-3-3-3-3-|-3-3-3-3-3-3-3-3-|-3-3-3-3-3-3-3-3-|-3-3-3-3-3-3-3-3-|
E|-----------------|-----------------|-----------------|-----------------|


[Verse 2]

e|-----------------|-----------------|-----------------|-----------------|
B|-----------------|-----------------|-----------------|-----------------|
G|-5-5-5-5-5-5-5-5-|-----------------|-7-7-7-7-7-7-7-7-|-----------------|
D|-5-5-5-5-5-5-5-5-|-7-7-7-7-7-7-7-7-|-7-7-7-7-7-7-7-7-|-5-5-5-5-5-5-5-5-|
A|-3-3-3-3-3-3-3-3-|-7-7-7-7-7-7-7-7-|-5-5-5-5-5-5-5-5-|-5-5-5-5-5-5-5-5-|
E|-----------------|-5-5-5-5-5-5-5-5-|-----------------|-3-3-3-3-3-3-3-3-|(x2)

e|-----------------|-----------------|
B|-----------------|-----------------|
G|-7-7-7-7-7-7-7-7-|-----------------|
D|-7-7-7-7-7-7-7-7-|-5-5-5-5-5-5-5-5-|
A|-5-5-5-5-5-5-5-5-|-5-5-5-5-5-5-5-5-|
E|-----------------|-3-3-3-3-3-3-3-3-|(x4)


[Chorus]

e|-----------------|-----------------|-----------------|-----------------|
B|-----------------|-----------------|-----------------|-----------------|
G|-----------------|-----------------|-5-5-5-5-5-5-5-5-|-----------------|
D|-3-3-3-3-3-3-3-3-|-5-5-5-5-5-5-5-5-|-5-5-5-5-5-5-5-5-|-7-7-7-7-7-7-7-7-|
A|-3-3-3-3-3-3-3-3-|-5-5-5-5-5-5-5-5-|-3-3-3-3-3-3-3-3-|-7-7-7-7-7-7-7-7-|
E|-1-1-1-1-1-1-1-1-|-3-3-3-3-3-3-3-3-|-----------------|-5-5-5-5-5-5-5-5-|(x3)

e|-----------------|-----------------|
B|-----------------|-----------------|
G|-----------------|-----------------|
D|-3-3-3-3-3-3-3-3-|-5---x-x---x-x---|
A|-3-3-3-3-3-3-3-3-|-5---x-x---x-x---|
E|-1-1-1-1-1-1-1-1-|-3---x-x---x-x---|


[Post-Chorus]

e|-----------------|-----------------|-----------------|-----------------|
B|-----------------|-----------------|-----------------|-----------------|
G|-5-5-5-5-5-5-5-5-|-5-5-5-5-5-5-5-5-|-5-5-5-5-5-5-5-5-|-5-5-5-5-5-5-5-5-|
D|-5-5-5-5-5-5-5-5-|-5-5-5-5-5-5-5-5-|-5-5-5-5-5-5-5-5-|-5-5-5-5-5-5-5-5-|
A|-3-3-3-3-3-3-3-3-|-3-3-3-3-3-3-3-3-|-3-3-3-3-3-3-3-3-|-3-3-3-3-3-3-3-3-|
E|-----------------|-----------------|-----------------|-----------------|


[Verse 3]

e|-----------------|-----------------|-----------------|-----------------|
B|-----------------|-----------------|-----------------|-----------------|
G|-5-5-5-5-5-5-5-5-|-----------------|-7-7-7-7-7-7-7-7-|-----------------|
D|-5-5-5-5-5-5-5-5-|-7-7-7-7-7-7-7-7-|-7-7-7-7-7-7-7-7-|-5-5-5-5-5-5-5-5-|
A|-3-3-3-3-3-3-3-3-|-7-7-7-7-7-7-7-7-|-5-5-5-5-5-5-5-5-|-5-5-5-5-5-5-5-5-|
E|-----------------|-5-5-5-5-5-5-5-5-|-----------------|-3-3-3-3-3-3-3-3-|(x2)

e|-----------------|-----------------|
B|-----------------|-----------------|
G|-7-7-7-7-7-7-7-7-|-----------------|
D|-7-7-7-7-7-7-7-7-|-5-5-5-5-5-5-5-5-|
A|-5-5-5-5-5-5-5-5-|-5-5-5-5-5-5-5-5-|
E|-----------------|-3-3-3-3-3-3-3-3-|(x4)


[Chorus]

e|-----------------|-----------------|-----------------|-----------------|
B|-----------------|-----------------|-----------------|-----------------|
G|-----------------|-----------------|-5-5-5-5-5-5-5-5-|-----------------|
D|-3-3-3-3-3-3-3-3-|-5-5-5-5-5-5-5-5-|-5-5-5-5-5-5-5-5-|-7-7-7-7-7-7-7-7-|
A|-3-3-3-3-3-3-3-3-|-5-5-5-5-5-5-5-5-|-3-3-3-3-3-3-3-3-|-7-7-7-7-7-7-7-7-|
E|-1-1-1-1-1-1-1-1-|-3-3-3-3-3-3-3-3-|-----------------|-5-5-5-5-5-5-5-5-|(x3)

e|-----------------|-----------------|
B|-----------------|-----------------|
G|-----------------|-----------------|
D|-3-3-3-3-3-3-3-3-|-5---x-x---x-x---|
A|-3-3-3-3-3-3-3-3-|-5---x-x---x-x---|
E|-1-1-1-1-1-1-1-1-|-3---x-x---x-x---|


[Outro]

e|-----------------|-----------------|-----------------|-----------------|
B|-----------------|-----------------|-----------------|-----------------|
G|-5-5-5-5-5-5-5-5-|-5-5-5-5-5-5-5-5-|-5-5-5-5-5-5-5-5-|-5-5-5-5-5-5-5-5-|
D|-5-5-5-5-5-5-5-5-|-5-5-5-5-5-5-5-5-|-5-5-5-5-5-5-5-5-|-5-5-5-5-5-5-5-5-|
A|-3-3-3-3-3-3-3-3-|-3-3-3-3-3-3-3-3-|-3-3-3-3-3-3-3-3-|-3-3-3-3-3-3-3-3-|
E|-----------------|-----------------|-----------------|-----------------|

e|-----------------|-----------------|-----------------|-----------------|
B|-----------------|-----------------|-----------------|-----------------|
G|-5-5-5-5-5-5-5-5-|-5-5-5-5-5-5-5-5-|-5-5-5-5-5-5-5-5-|-5---------------|
D|-5-5-5-5-5-5-5-5-|-5-5-5-5-5-5-5-5-|-5-5-5-5-5-5-5-5-|-5---------------|
A|-3-3-3-3-3-3-3-3-|-3-3-3-3-3-3-3-3-|-3-3-3-3-3-3-3-3-|-3---------------|
E|-----------------|-----------------|-----------------|-----------------|


************************************

| x  Dead note

************************************
Suggest correction
Give kudos to tab author, rate the tab!
1 2 3 4 5
comments
print report bad tab
guest
You may want to rate the tab now too:
select rating
Wanna post a correction for this tab? Suggest correction