Oops, an error
Loading. Please wait.

Be My Friend Tab

4 views 1 this week
no commentswrite comment
1 2 3 4 5
3 more votes to show rating
add to favorites
launch autoscroll
font size
0
reset
how to read this tab
guitar tuner
Autoscroll
slow
fast
+/-
esc
set tempo
stop
Help us to improve Ultimate-Guitar.com Take our survey!
×
Author
Difficulty
novice
Be My Friend    
Dog Party
Vol. 4 (2015)

Standard Tuning


[Intro]

e|-----------------|-----------------|-----------------|-----------------|
B|-----------------|-----------------|-----------------|-----------------|
G|-----------------|-----------------|-----------------|-----------------|
D|-7---7-7---7-7-7-|-7---7-7---7-7-7-|-5/7-7-7---7-7-7-|-5/7-7-7---7-7-7-|
A|-7---7-7---7-7-7-|-7---7-7---7-7-7-|-5/7-7-7---7-7-7-|-5/7-7-7---7-7-7-|
E|-5---5-5---5-5-5-|-5---5-5---5-5-5-|-3/5-5-5---5-5-5-|-3/5-5-5---5-5-5-|


[Verse 1]

e|-----------------|-----------------|-----------------|-----------------|
B|-----------------|-----------------|-----------------|-----------------|
G|-----------------|-----------------|-----------------|-----------------|
D|-7---7-7---7-7-7-|-7---7-7---7-7-7-|-5/7-7-7---7-7-7-|-5/7-7-7---7-7-7-|
A|-7---7-7---7-7-7-|-7---7-7---7-7-7-|-5/7-7-7---7-7-7-|-5/7-7-7---7-7-7-|
E|-5---5-5---5-5-5-|-5---5-5---5-5-5-|-3/5-5-5---5-5-5-|-3/5-5-5---5-5-5-|(x4)


[Chorus 1]

e|-----------------|-----------------|-----------------|-----------------|
B|-----------------|-----------------|-----------------|-----------------|
G|-7---7-7---7-7-7-|-5\4---4---4-4-4-|-7---7-7---7-7-7-|-5\4---4---4-4-4-|
D|-7---7-7---7-7-7-|-5\4---4---4-4-4-|-7---7-7---7-7-7-|-5\4---4---4-4-4-|
A|-5---5-5---5-5-5-|-3\2---2---2-2-2-|-5---5-5---5-5-5-|-3\2---2---2-2-2-|
E|-----------------|-----------------|-----------------|-----------------|(x2)


[Post-Chorus]

e|-----------------|-----------------|-----------------|-----------------|
B|-----------------|-----------------|-----------------|-----------------|
G|-----------------|-----------------|-----------------|-----------------|
D|-7---7-7---7-7-7-|-7---7-7---7-7-7-|-5/7-7-7---7-7-7-|-5/7-7-7---7-7-7-|
A|-7---7-7---7-7-7-|-7---7-7---7-7-7-|-5/7-7-7---7-7-7-|-5/7-7-7---7-7-7-|
E|-5---5-5---5-5-5-|-5---5-5---5-5-5-|-3/5-5-5---5-5-5-|-3/5-5-5---5-5-5-|


[Verse 2]

e|-----------------|-----------------|-----------------|-----------------|
B|-----------------|-----------------|-----------------|-----------------|
G|-----------------|-----------------|-----------------|-----------------|
D|-7---7-7---7-7-7-|-7---7-7---7-7-7-|-5/7-7-7---7-7-7-|-5/7-7-7---7-7-7-|
A|-7---7-7---7-7-7-|-7---7-7---7-7-7-|-5/7-7-7---7-7-7-|-5/7-7-7---7-7-7-|
E|-5---5-5---5-5-5-|-5---5-5---5-5-5-|-3/5-5-5---5-5-5-|-3/5-5-5---5-5-5-|(x4)


[Chorus 2]

e|-----------------|-----------------|-----------------|-----------------|
B|-----------------|-----------------|-----------------|-----------------|
G|-7---7-7---7-7-7-|-5\4---4---4-4-4-|-7---7-7---7-7-7-|-5\4---4---4-4-4-|
D|-7---7-7---7-7-7-|-5\4---4---4-4-4-|-7---7-7---7-7-7-|-5\4---4---4-4-4-|
A|-5---5-5---5-5-5-|-3\2---2---2-2-2-|-5---5-5---5-5-5-|-3\2---2---2-2-2-|
E|-----------------|-----------------|-----------------|-----------------|(x2)

e|-----------------|-----------------|
B|-----------------|-----------------|
G|-----------------|-----------------|
D|-7---------------|-----------------|
A|-7---------------|-----------------|
E|-5---------------|-----------------|


[Post-Chorus]

e|-----------------|-----------------|-----------------|-----------------|
B|-----------------|-----------------|-----------------|-----------------|
G|-----------------|-----------------|-----------------|-----------------|
D|-7---7-7---7-7-7-|-7---7-7---7-7-7-|-5/7-7-7---7-7-7-|-5/7-7-7---7-7-7-|
A|-7---7-7---7-7-7-|-7---7-7---7-7-7-|-5/7-7-7---7-7-7-|-5/7-7-7---7-7-7-|
E|-5---5-5---5-5-5-|-5---5-5---5-5-5-|-3/5-5-5---5-5-5-|-3/5-5-5---5-5-5-|


[Verse 3]

e|-----------------|-----------------|-----------------|-----------------|
B|-----------------|-----------------|-----------------|-----------------|
G|-----------------|-----------------|-----------------|-----------------|
D|-7---7-7---7-7-7-|-7---7-7---7-7-7-|-5/7-7-7---7-7-7-|-5/7-7-7---7-7-7-|
A|-7---7-7---7-7-7-|-7---7-7---7-7-7-|-5/7-7-7---7-7-7-|-5/7-7-7---7-7-7-|
E|-5---5-5---5-5-5-|-5---5-5---5-5-5-|-3/5-5-5---5-5-5-|-3/5-5-5---5-5-5-|(x4)


[Chorus 3]

e|-----------------|-----------------|-----------------|-----------------|
B|-----------------|-----------------|-----------------|-----------------|
G|-7---7-7---7-7-7-|-5\4---4---4-4-4-|-7---7-7---7-7-7-|-5\4---4---4-4-4-|
D|-7---7-7---7-7-7-|-5\4---4---4-4-4-|-7---7-7---7-7-7-|-5\4---4---4-4-4-|
A|-5---5-5---5-5-5-|-3\2---2---2-2-2-|-5---5-5---5-5-5-|-3\2---2---2-2-2-|
E|-----------------|-----------------|-----------------|-----------------|(x2)


[Outro]

e|---|
B|---|
G|---|
D|-7-|
A|-7-|
E|-5-|


***********************************
| \   Slide Down
| /   Slide Up
***********************************

Suggest correction
Give kudos to tab author, rate the tab!
1 2 3 4 5
comments
print report bad tab
guest
You may want to rate the tab now too:
select rating
Wanna post a correction for this tab? Suggest correction