Oops, an error
Loading. Please wait.

Creepin Tab

1 view 1 this week
no commentswrite comment
1 2 3 4 5
3 more votes to show rating
add to favorites
launch autoscroll
font size
0
reset
how to read this tab
guitar tuner
Autoscroll
slow
fast
+/-
esc
set tempo
stop
Help us to improve Ultimate-Guitar.com Take our survey!
×
Author
Difficulty
novice
Creepin'
Dog Party
Vol. 4 (2015)

Standard Tuning


[Intro]

e|-----------------|-----------------|-----------------|-----------------|
B|-----------------|-----------------|-----------------|-----------------|
G|-----------------|-----------------|-----------------|-----------------|
D|-2---2-2---2-2-2-|-2---2-2---2-2-2-|-2---2-2---2-2-2-|-2---2-2---2-2-2-|
A|-2---2-2---2-2-2-|-2---2-2---2-2-2-|-2---2-2---2-2-2-|-2---2-2---2-2-2-|
E|-0---0-0---0-0-0-|-0---0-0---0-0-0-|-0---0-0---0-0-0-|-0---0-0---0-0-0-|


[Verse 1]

e|-----------------|-----------------|-----------------|-----------------|
B|-----------------|-----------------|-----------------|-----------------|
G|-----------------|-----------------|-----------------|-----------------|
D|-2---2-2---2-2-2-|-2---2-2---2-2-2-|-2---2-2---2-2-2-|-2---2-2---2-2-2-|
A|-2---2-2---2-2-2-|-2---2-2---2-2-2-|-2---2-2---2-2-2-|-2---2-2---2-2-2-|
E|-0---0-0---0-0-0-|-0---0-0---0-0-0-|-0---0-0---0-0-0-|-0---0-0---0-0-0-|

e|-----------------|-----------------|-----------------|-----------------|
B|-----------------|-----------------|-----------------|-----------------|
G|-----------------|-----------------|-----------------|-----------------|
D|-5---5-5---5-5-5-|-5---5-5---5-5-5-|-2---2-2---2-2-2-|-2---2-2---2-2-2-|
A|-5---5-5---5-5-5-|-5---5-5---5-5-5-|-2---2-2---2-2-2-|-2---2-2---2-2-2-|
E|-3---3-3---3-3-3-|-3---3-3---3-3-3-|-0---0-0---0-0-0-|-0---0-0---0-0-0-|

e|-----------------|-----------------|-----------------|-----------------|
B|-----------------|-----------------|-----------------|-----------------|
G|-----------------|-----------------|-----------------|-----------------|
D|-2---2-2---2-2-2-|-2---2-2---2-2-2-|-5---5-5---5-5-5-|-5---5-5---5-5-5-|
A|-2---2-2---2-2-2-|-2---2-2---2-2-2-|-5---5-5---5-5-5-|-5---5-5---5-5-5-|
E|-0---0-0---0-0-0-|-0---0-0---0-0-0-|-3---3-3---3-3-3-|-3---3-3---3-3-3-|

e|-----------------|-----------------|-----------------|-----------------|
B|-----------------|-----------------|-----------------|-----------------|
G|-----------------|-----------------|-----------------|-----------------|
D|-5---5-5---5-5-5-|-5---5-5---5-5-5-|-2---2-2---2-2-2-|-2---2-2---2-2-2-|
A|-5---5-5---5-5-5-|-5---5-5---5-5-5-|-2---2-2---2-2-2-|-2---2-2---2-2-2-|
E|-3---3-3---3-3-3-|-3---3-3---3-3-3-|-0---0-0---0-0-0-|-0---0-0---0-0-0-|


[Chorus 1]

e|-----------------|-----------------|-----------------|-----------------|
B|-----------------|-----------------|-----------------|-----------------|
G|-----------------|-----------------|-----------------|-----------------|
D|-7-7-7-7-7-7-7-7-|-5-5-5-5-5-5-5-5-|-2-2-2-2-2-2-2-2-|-2-2-2-2-2-2-2-2-|
A|-7-7-7-7-7-7-7-7-|-5-5-5-5-5-5-5-5-|-2-2-2-2-2-2-2-2-|-2-2-2-2-2-2-2-2-|
E|-5-5-5-5-5-5-5-5-|-3-3-3-3-3-3-3-3-|-0-0-0-0-0-0-0-0-|-0-0-0-0-0-0-0-0-|

e|-----------------|-----------------|-----------------|-----------------|
B|-----------------|-----------------|-----------------|-----------------|
G|-----------------|-----------------|-----------------|-----------------|
D|-7---7-7---7-7-7-|-5---5-5---5-5-5-|-2---2-2---2-2-2-|-2---2-2---2-2-2-|
A|-7---7-7---7-7-7-|-5---5-5---5-5-5-|-2---2-2---2-2-2-|-2---2-2---2-2-2-|
E|-5---5-5---5-5-5-|-3---3-3---3-3-3-|-0---0-0---0-0-0-|-0---0-0---0-0-0-|


[Verse 2]

e|-----------------|-----------------|-----------------|-----------------|
B|-----------------|-----------------|-----------------|-----------------|
G|-----------------|-----------------|-----------------|-----------------|
D|-2---2-2---2-2-2-|-2---2-2---2-2-2-|-2---2-2---2-2-2-|-2---2-2---2-2-2-|
A|-2---2-2---2-2-2-|-2---2-2---2-2-2-|-2---2-2---2-2-2-|-2---2-2---2-2-2-|
E|-0---0-0---0-0-0-|-0---0-0---0-0-0-|-0---0-0---0-0-0-|-0---0-0---0-0-0-|

e|-----------------|-----------------|-----------------|-----------------|
B|-----------------|-----------------|-----------------|-----------------|
G|-----------------|-----------------|-----------------|-----------------|
D|-5---5-5---5-5-5-|-5---5-5---5-5-5-|-2---2-2---2-2-2-|-2---2-2---2-2-2-|
A|-5---5-5---5-5-5-|-5---5-5---5-5-5-|-2---2-2---2-2-2-|-2---2-2---2-2-2-|
E|-3---3-3---3-3-3-|-3---3-3---3-3-3-|-0---0-0---0-0-0-|-0---0-0---0-0-0-|

e|-----------------|-----------------|-----------------|-----------------|
B|-----------------|-----------------|-----------------|-----------------|
G|-----------------|-----------------|-----------------|-----------------|
D|-2---2-2---2-2-2-|-2---2-2---2-2-2-|-5---5-5---5-5-5-|-5---5-5---5-5-5-|
A|-2---2-2---2-2-2-|-2---2-2---2-2-2-|-5---5-5---5-5-5-|-5---5-5---5-5-5-|
E|-0---0-0---0-0-0-|-0---0-0---0-0-0-|-3---3-3---3-3-3-|-3---3-3---3-3-3-|

e|-----------------|-----------------|-----------------|-----------------|
B|-----------------|-----------------|-----------------|-----------------|
G|-----------------|-----------------|-----------------|-----------------|
D|-5---5-5---5-5-5-|-5---5-5---5-5-5-|-2---2-2---2-2-2-|-2---2-2---2-2-2-|
A|-5---5-5---5-5-5-|-5---5-5---5-5-5-|-2---2-2---2-2-2-|-2---2-2---2-2-2-|
E|-3---3-3---3-3-3-|-3---3-3---3-3-3-|-0---0-0---0-0-0-|-0---0-0---0-0-0-|


[Chorus 2]

e|-----------------|-----------------|-----------------|-----------------|
B|-----------------|-----------------|-----------------|-----------------|
G|-----------------|-----------------|-----------------|-----------------|
D|-7-7-7-7-7-7-7-7-|-5-5-5-5-5-5-5-5-|-2-2-2-2-2-2-2-2-|-2-2-2-2-2-2-2-2-|
A|-7-7-7-7-7-7-7-7-|-5-5-5-5-5-5-5-5-|-2-2-2-2-2-2-2-2-|-2-2-2-2-2-2-2-2-|
E|-5-5-5-5-5-5-5-5-|-3-3-3-3-3-3-3-3-|-0-0-0-0-0-0-0-0-|-0-0-0-0-0-0-0-0-|

e|-----------------|-----------------|-----------------|-----------------|
B|-----------------|-----------------|-----------------|-----------------|
G|-----------------|-----------------|-----------------|-----------------|
D|-7---7-7---7-7-7-|-5---5-5---5-5-5-|-2---2-2---2-2-2-|-2---2-2---2-2-2-|
A|-7---7-7---7-7-7-|-5---5-5---5-5-5-|-2---2-2---2-2-2-|-2---2-2---2-2-2-|
E|-5---5-5---5-5-5-|-3---3-3---3-3-3-|-0---0-0---0-0-0-|-0---0-0---0-0-0-|


[Verse 3]

e|-----------------|-----------------|-----------------|-----------------|
B|-----------------|-----------------|-----------------|-----------------|
G|-----------------|-----------------|-----------------|-----------------|
D|-2---------------|-2-2-------------|-2---------------|-2-2-------------|
A|-2---------------|-2-2-------------|-2---------------|-2-2-------------|
E|-0---------------|-0-0-------------|-0---------------|-0-0-------------|

e|-----------------|-----------------|-----------------|-----------------|
B|-----------------|-----------------|-----------------|-----------------|
G|-----------------|-----------------|-----------------|-----------------|
D|-5---5-5---5-5-5-|-5---5-5---5-5-5-|-2---2-2---2-2-2-|-2---2-2---2-2-2-|
A|-5---5-5---5-5-5-|-5---5-5---5-5-5-|-2---2-2---2-2-2-|-2---2-2---2-2-2-|
E|-3---3-3---3-3-3-|-3---3-3---3-3-3-|-0---0-0---0-0-0-|-0---0-0---0-0-0-|

e|-----------------|-----------------|-----------------|-----------------|
B|-----------------|-----------------|-----------------|-----------------|
G|-----------------|-----------------|-----------------|-----------------|
D|-2---2-2---2-2-2-|-2---2-2---2-2-2-|-5---5-5---5-5-5-|-5---5-5---5-5-5-|
A|-2---2-2---2-2-2-|-2---2-2---2-2-2-|-5---5-5---5-5-5-|-5---5-5---5-5-5-|
E|-0---0-0---0-0-0-|-0---0-0---0-0-0-|-3---3-3---3-3-3-|-3---3-3---3-3-3-|

e|-----------------|-----------------|-----------------|-----------------|
B|-----------------|-----------------|-----------------|-----------------|
G|-----------------|-----------------|-----------------|-----------------|
D|-5---5-5---5-5-5-|-5---5-5---5-5-5-|-2---2-2---2-2-2-|-2---2-2---2-2-2-|
A|-5---5-5---5-5-5-|-5---5-5---5-5-5-|-2---2-2---2-2-2-|-2---2-2---2-2-2-|
E|-3---3-3---3-3-3-|-3---3-3---3-3-3-|-0---0-0---0-0-0-|-0---0-0---0-0-0-|


[Chours 3]

e|-----------------|-----------------|-----------------|-----------------|
B|-----------------|-----------------|-----------------|-----------------|
G|-----------------|-----------------|-----------------|-----------------|
D|-7-7-7-7-7-7-7-7-|-5-5-5-5-5-5-5-5-|-2-2-2-2-2-2-2-2-|-2-2-2-2-2-2-2-2-|
A|-7-7-7-7-7-7-7-7-|-5-5-5-5-5-5-5-5-|-2-2-2-2-2-2-2-2-|-2-2-2-2-2-2-2-2-|
E|-5-5-5-5-5-5-5-5-|-3-3-3-3-3-3-3-3-|-0-0-0-0-0-0-0-0-|-0-0-0-0-0-0-0-0-|

e|-----------------|-----------------|-----------------|-----------------|
B|-----------------|-----------------|-----------------|-----------------|
G|-----------------|-----------------|-----------------|-----------------|
D|-7---7-7---7-7-7-|-5---5-5---5-5-5-|-2---2-2---2-2-2-|-2---2-2---2-2-2-|
A|-7---7-7---7-7-7-|-5---5-5---5-5-5-|-2---2-2---2-2-2-|-2---2-2---2-2-2-|
E|-5---5-5---5-5-5-|-3---3-3---3-3-3-|-0---0-0---0-0-0-|-0---0-0---0-0-0-|


e|-----------------|-----------------|-----------------|-----------------|
B|-----------------|-----------------|-----------------|-----------------|
G|-----------------|-----------------|-----------------|-----------------|
D|-7-7-7-7-7-7-7-7-|-5-5-5-5-5-5-5-5-|-2-2-2-2-2-2-2-2-|-2-2-2-2-2-2-2-2-|
A|-7-7-7-7-7-7-7-7-|-5-5-5-5-5-5-5-5-|-2-2-2-2-2-2-2-2-|-2-2-2-2-2-2-2-2-|
E|-5-5-5-5-5-5-5-5-|-3-3-3-3-3-3-3-3-|-0-0-0-0-0-0-0-0-|-0-0-0-0-0-0-0-0-|


e|-----------------|-----------------|-----------------|
B|-----------------|-----------------|-----------------|
G|-----------------|-----------------|-----------------|
D|-7-7-7-7-7-7-7-7-|-5-5-5-5-5-5-5-5-|-2---------------|
A|-7-7-7-7-7-7-7-7-|-5-5-5-5-5-5-5-5-|-2---------------|
E|-5-5-5-5-5-5-5-5-|-3-3-3-3-3-3-3-3-|-0---------------|

Suggest correction
Give kudos to tab author, rate the tab!
1 2 3 4 5
comments
print report bad tab
guest
You may want to rate the tab now too:
select rating
Wanna post a correction for this tab? Suggest correction