Oops, an error
Loading. Please wait.

Dead Guy Tab

19 views 1 this week
no commentswrite comment
1 2 3 4 5
3 more votes to show rating
add to favorites
launch autoscroll
font size
0
reset
how to read this tab
guitar tuner
Autoscroll
slow
fast
+/-
esc
set tempo
stop
Help us to improve Ultimate-Guitar.com Take our survey!
×
Author
Difficulty
novice
Dead Guy        
Dog Party
Vol. 4 (2015)

Standard Tuning


[Intro]

e|-----------------|-----------------|-----------------|-----------------|
B|-----------------|-----------------|-----------------|-----------------|
G|-9-9-9-9---9-9-9-|-9-9-9-9---9-9-9-|-9-9-9-9---9-9-9-|-9-9-9-9---9-9-9-|
D|-9-9-9-9---9-9-9-|-9-9-9-9---9-9-9-|-9-9-9-9---9-9-9-|-9-9-9-9---9-9-9-|
A|-7-7-7-7---7-7-7-|-7-7-7-7---7-7-7-|-7-7-7-7---7-7-7-|-7-7-7-7---7-7-7-|
E|-----------------|-----------------|-----------------|-----------------|


[Verse 1]

e|-----------------|-----------------|-----------------|-----------------|
B|-----------------|-----------------|-----------------|-----------------|
G|-9---9-9---9-9-9-|-6---6-6---6-6-6-|-9---9-9---9-9-9-|-6---6-6---6-6-6-|
D|-9---9-9---9-9-9-|-6---6-6---6-6-6-|-9---9-9---9-9-9-|-6---6-6---6-6-6-|
A|-7---7-7---7-7-7-|-4---4-4---4-4-4-|-7---7-7---7-7-7-|-4---4-4---4-4-4-|
E|-----------------|-----------------|-----------------|-----------------|

e|-----------------|-----------------|-----------------|-----------------|
B|-----------------|-----------------|-----------------|-----------------|
G|-----------------|-----------------|-----------------|-----------------|
D|-7---7-7---7-7-7-|-9---9-9---9-9-9-|-7---7-7---7-7-7-|-9---9-9---9-9-9-|
A|-7---7-7---7-7-7-|-9---9-9---9-9-9-|-7---7-7---7-7-7-|-9---9-9---9-9-9-|
E|-5---5-5---5-5-5-|-7---7-7---7-7-7-|-5---5-5---5-5-5-|-7---7-7---7-7-7-|(All x2)


[Chorus 1]

e|-----------------|-----------------|-----------------|-----------------|
B|-----------------|-----------------|-----------------|-----------------|
G|-9---9-9---9-9-9-|-6---6-6---6-6-6-|-9---9-9---9-9-9-|-6---6-6---6-6-6-|
D|-9---9-9---9-9-9-|-6---6-6---6-6-6-|-9---9-9---9-9-9-|-6---6-6---6-6-6-|
A|-7---7-7---7-7-7-|-4---4-4---4-4-4-|-7---7-7---7-7-7-|-4---4-4---4-4-4-|
E|-----------------|-----------------|-----------------|-----------------|(x2)

e|-----------------|-----------------|-----------------|-----------------|
B|-----------------|-----------------|-----------------|-----------------|
G|-----------------|-----------------|-9---9-9---9-9-9-|-6---6-6---6-6-6-|
D|-7---7-7---7-7-7-|-9---9-9---9-9-9-|-9---9-9---9-9-9-|-6---6-6---6-6-6-|
A|-7---7-7---7-7-7-|-9---9-9---9-9-9-|-7---7-7---7-7-7-|-4---4-4---4-4-4-|
E|-5---5-5---5-5-5-|-7---7-7---7-7-7-|-----------------|-----------------|(x3)

e|-----------------|-----------------|
B|-----------------|-----------------|
G|-----------------|-----------------|
D|-7---7-7---7-7-7-|-9---------------|
A|-7---7-7---7-7-7-|-9---------------|
E|-5---5-5---5-5-5-|-7---------------|


[Post Chorus]

e|-----------------|-----------------|-----------------|-----------------|
B|-----------------|-----------------|-----------------|-----------------|
G|-9-9-9-9---9-9-9-|-9-9-9-9---9-9-9-|-9-9-9-9---9-9-9-|-9-9-9-9---9-9-9-|
D|-9-9-9-9---9-9-9-|-9-9-9-9---9-9-9-|-9-9-9-9---9-9-9-|-9-9-9-9---9-9-9-|
A|-7-7-7-7---7-7-7-|-7-7-7-7---7-7-7-|-7-7-7-7---7-7-7-|-7-7-7-7---7-7-7-|
E|-----------------|-----------------|-----------------|-----------------|


[Verse 2]

e|-----------------|-----------------|-----------------|-----------------|
B|-----------------|-----------------|-----------------|-----------------|
G|-9---9-9---9-9-9-|-6---6-6---6-6-6-|-9---9-9---9-9-9-|-6---6-6---6-6-6-|
D|-9---9-9---9-9-9-|-6---6-6---6-6-6-|-9---9-9---9-9-9-|-6---6-6---6-6-6-|
A|-7---7-7---7-7-7-|-4---4-4---4-4-4-|-7---7-7---7-7-7-|-4---4-4---4-4-4-|
E|-----------------|-----------------|-----------------|-----------------|

e|-----------------|-----------------|-----------------|-----------------|
B|-----------------|-----------------|-----------------|-----------------|
G|-----------------|-----------------|-----------------|-----------------|
D|-7---7-7---7-7-7-|-9---9-9---9-9-9-|-7---7-7---7-7-7-|-9---9-9---9-9-9-|
A|-7---7-7---7-7-7-|-9---9-9---9-9-9-|-7---7-7---7-7-7-|-9---9-9---9-9-9-|
E|-5---5-5---5-5-5-|-7---7-7---7-7-7-|-5---5-5---5-5-5-|-7---7-7---7-7-7-|(All x2)


[Chorus 2]

e|-----------------|-----------------|-----------------|-----------------|
B|-----------------|-----------------|-----------------|-----------------|
G|-9---9-9---9-9-9-|-6---6-6---6-6-6-|-9---9-9---9-9-9-|-6---6-6---6-6-6-|
D|-9---9-9---9-9-9-|-6---6-6---6-6-6-|-9---9-9---9-9-9-|-6---6-6---6-6-6-|
A|-7---7-7---7-7-7-|-4---4-4---4-4-4-|-7---7-7---7-7-7-|-4---4-4---4-4-4-|
E|-----------------|-----------------|-----------------|-----------------|(x2)

e|-----------------|-----------------|-----------------|-----------------|
B|-----------------|-----------------|-----------------|-----------------|
G|-----------------|-----------------|-9---9-9---9-9-9-|-6---6-6---6-6-6-|
D|-7---7-7---7-7-7-|-9---9-9---9-9-9-|-9---9-9---9-9-9-|-6---6-6---6-6-6-|
A|-7---7-7---7-7-7-|-9---9-9---9-9-9-|-7---7-7---7-7-7-|-4---4-4---4-4-4-|
E|-5---5-5---5-5-5-|-7---7-7---7-7-7-|-----------------|-----------------|(x3)

e|-----------------|-----------------|
B|-----------------|-----------------|
G|-----------------|-----------------|
D|-7---7-7---7-7-7-|-9---------------|
A|-7---7-7---7-7-7-|-9---------------|
E|-5---5-5---5-5-5-|-7---------------|


[Outro] 

e|-----------------|-----------------|-----------------|-----------------|
B|-----------------|-----------------|-----------------|-----------------|
G|-9---9-9---9-9-9-|-6---6-6---6-6-6-|-----------------|-----------------|
D|-9---9-9---9-9-9-|-6---6-6---6-6-6-|-7---7-7---7-7-7-|-9---9-9---9-9-9-|
A|-7---7-7---7-7-7-|-4---4-4---4-4-4-|-7---7-7---7-7-7-|-9---9-9---9-9-9-|
E|-----------------|-----------------|-5---5-5---5-5-5-|-7---7-7---7-7-7-|(x4)

e|---|
B|---|
G|-9-|
D|-9-|
A|-7-|
E|---|
Suggest correction
Give kudos to tab author, rate the tab!
1 2 3 4 5
comments
print report bad tab
guest
You may want to rate the tab now too:
select rating
Wanna post a correction for this tab? Suggest correction