Oops, an error
Loading. Please wait.

Enough Tab

22 views 1 this week
no commentswrite comment
1 2 3 4 5
3 more votes to show rating
add to favorites
launch autoscroll
font size
0
reset
how to read this tab
guitar tuner
Autoscroll
slow
fast
+/-
esc
set tempo
stop
Help us to improve Ultimate-Guitar.com Take our survey!
×
Author
Difficulty
novice
Enough
Dog Party
'Til You're Mine (2015)

Standard Tuning


[Intro]

e|-----------------|-----------------|-----------------|-----------------|
B|-----------------|-----------------|-----------------|-----------------|
G|-----------------|-----------------|-----------------|-----------------|
D|-3---3-3---3-3-3-|-3---3-3---3-3-3-|-3---3-3---3-3-3-|-3---3-3---3-3-3-|
A|-3---3-3---3-3-3-|-3---3-3---3-3-3-|-3---3-3---3-3-3-|-3---3-3---3-3-3-|
E|-1---1-1---1-1-1-|-1---1-1---1-1-1-|-1---1-1---1-1-1-|-1---1-1---1-1-1-|


[Verse 1]

e|-----------------|-----------------|-----------------|-----------------|
B|-----------------|-----------------|-----------------|-----------------|
G|-----------------|-----------------|-5---5-5---5-5-5-|-3---3-3---3-3-3-|
D|-3---3-3---3-3-3-|-3---3-3---3-3-3-|-5---5-5---5-5-5-|-3---3-3---3-3-3-|
A|-3---3-3---3-3-3-|-3---3-3---3-3-3-|-3---3-3---3-3-3-|-1---1-1---1-1-1-|
E|-1---1-1---1-1-1-|-1---1-1---1-1-1-|-----------------|-----------------|(x4)


[Chorus 1]

e|-----------------|-----------------|-----------------|-----------------|
B|-----------------|-----------------|-----------------|-----------------|
G|-7-x-7-x-7-x-7-x-|-7-x-7-x-7-x-7-x-|-3-x-3-x-3-x-3-x-|-3-x-3-x-3-x-3-x-|
D|-7-x-7-x-7-x-7-x-|-7-x-7-x-7-x-7-x-|-3-x-3-x-3-x-3-x-|-3-x-3-x-3-x-3-x-|
A|-5-x-5-x-5-x-5-x-|-5-x-5-x-5-x-5-x-|-1-x-1-x-1-x-1-x-|-1-x-1-x-1-x-1-x-|
E|-----------------|-----------------|-----------------|-----------------|

e|-----------------|-----------------|-----------------|-----------------|
B|-----------------|-----------------|-----------------|-----------------|
G|-----------------|-3-3-3-3-3-3-3-3-|-----------------|-----------------|
D|-5-5-5-5-5-5-5-5-|-3-3-3-3-3-3-3-3-|-3-3-3-3-3-3-3-3-|-3-3-3-3-3-3-3-3-|
A|-5-5-5-5-5-5-5-5-|-1-1-1-1-1-1-1-1-|-3-3-3-3-3-3-3-3-|-3-3-3-3-3-3-3-3-|
E|-3-3-3-3-3-3-3-3-|-----------------|-1-1-1-1-1-1-1-1-|-1-1-1-1-1-1-1-1-|


[Verse 2]

e|-----------------|-----------------|-----------------|-----------------|
B|-----------------|-----------------|-----------------|-----------------|
G|-----------------|-----------------|-5---5-5---5-5-5-|-3---3-3---3-3-3-|
D|-3---3-3---3-3-3-|-3---3-3---3-3-3-|-5---5-5---5-5-5-|-3---3-3---3-3-3-|
A|-3---3-3---3-3-3-|-3---3-3---3-3-3-|-3---3-3---3-3-3-|-1---1-1---1-1-1-|
E|-1---1-1---1-1-1-|-1---1-1---1-1-1-|-----------------|-----------------|(x4)


[Chorus 2]

e|-----------------|-----------------|-----------------|-----------------|
B|-----------------|-----------------|-----------------|-----------------|
G|-7-x-7-x-7-x-7-x-|-7-x-7-x-7-x-7-x-|-3-x-3-x-3-x-3-x-|-3-x-3-x-3-x-3-x-|
D|-7-x-7-x-7-x-7-x-|-7-x-7-x-7-x-7-x-|-3-x-3-x-3-x-3-x-|-3-x-3-x-3-x-3-x-|
A|-5-x-5-x-5-x-5-x-|-5-x-5-x-5-x-5-x-|-1-x-1-x-1-x-1-x-|-1-x-1-x-1-x-1-x-|
E|-----------------|-----------------|-----------------|-----------------|

e|-----------------|-----------------|-----------------|-----------------|
B|-----------------|-----------------|-----------------|-----------------|
G|-----------------|-3-3-3-3-3-3-3-3-|-----------------|-----------------|
D|-5-5-5-5-5-5-5-5-|-3-3-3-3-3-3-3-3-|-3-3-3-3-3-3-3-3-|-3-3-3-3-3-3-3-3-|
A|-5-5-5-5-5-5-5-5-|-1-1-1-1-1-1-1-1-|-3-3-3-3-3-3-3-3-|-3-3-3-3-3-3-3-3-|
E|-3-3-3-3-3-3-3-3-|-----------------|-1-1-1-1-1-1-1-1-|-1-1-1-1-1-1-1-1-|


[Verse 3]

e|-----------------|-----------------|-----------------|-----------------|
B|-----------------|-----------------|-----------------|-----------------|
G|-----------------|-----------------|-5---5-5---5-5-5-|-3---3-3---3-3-3-|
D|-3---3-3---3-3-3-|-3---3-3---3-3-3-|-5---5-5---5-5-5-|-3---3-3---3-3-3-|
A|-3---3-3---3-3-3-|-3---3-3---3-3-3-|-3---3-3---3-3-3-|-1---1-1---1-1-1-|
E|-1---1-1---1-1-1-|-1---1-1---1-1-1-|-----------------|-----------------|(x4)


[Chorus 3]

e|-----------------|-----------------|-----------------|-----------------|
B|-----------------|-----------------|-----------------|-----------------|
G|-7-x-7-x-7-x-7-x-|-7-x-7-x-7-x-7-x-|-3-x-3-x-3-x-3-x-|-3-x-3-x-3-x-3-x-|
D|-7-x-7-x-7-x-7-x-|-7-x-7-x-7-x-7-x-|-3-x-3-x-3-x-3-x-|-3-x-3-x-3-x-3-x-|
A|-5-x-5-x-5-x-5-x-|-5-x-5-x-5-x-5-x-|-1-x-1-x-1-x-1-x-|-1-x-1-x-1-x-1-x-|
E|-----------------|-----------------|-----------------|-----------------|

e|-----------------|-----------------|-----------------|-----------------|
B|-----------------|-----------------|-----------------|-----------------|
G|-----------------|-3-3-3-3-3-3-3-3-|-----------------|-----------------|
D|-5-5-5-5-5-5-5-5-|-3-3-3-3-3-3-3-3-|-3-3-3-3-3-3-3-3-|-3-3-3-3-3-3-3-3-|
A|-5-5-5-5-5-5-5-5-|-1-1-1-1-1-1-1-1-|-3-3-3-3-3-3-3-3-|-3-3-3-3-3-3-3-3-|
E|-3-3-3-3-3-3-3-3-|-----------------|-1-1-1-1-1-1-1-1-|-1-1-1-1-1-1-1-1-|(All x2)


[Outro]

e|-----------------|-----------------|---|
B|-----------------|-----------------|---|
G|-----------------|-3-3-3-3-3-3-3-3-|---|
D|-5-5-5-5-5-5-5-5-|-3-3-3-3-3-3-3-3-|-3-|
A|-5-5-5-5-5-5-5-5-|-1-1-1-1-1-1-1-1-|-3-|
E|-3-3-3-3-3-3-3-3-|-----------------|-1-|


************************************

| x  Dead note

************************************
Suggest correction
Give kudos to tab author, rate the tab!
1 2 3 4 5
comments
print report bad tab
guest
You may want to rate the tab now too:
select rating
Wanna post a correction for this tab? Suggest correction