Oops, an error
Loading. Please wait.

Forget Tab

7 views 1 this week
no commentswrite comment
1 2 3 4 5
3 more votes to show rating
add to favorites
launch autoscroll
font size
0
reset
how to read this tab
guitar tuner
Autoscroll
slow
fast
+/-
esc
set tempo
stop
Help us to improve Ultimate-Guitar.com Take our survey!
×
Author
Difficulty
novice
Forget
Dog Party
Vol. 4 (2015)

Standard Tuning


[Intro]

e|---------------------------------|---------------------------------|
B|---------------------------------|---------------------------------|
G|---------------------------------|-5---5-5---5-5-5-5---5-5---5-5-5-|
D|-7---7-7---7-7-7-7---7-7---7-7-7-|-5---5-5---5-5-5-5---5-5---5-5-5-|
A|-7---7-7---7-7-7-7---7-7---7-7-7-|-3---3-3---3-3-3-3---3-3---3-3-3-|
E|-5---5-5---5-5-5-5---5-5---5-5-5-|---------------------------------|

e|---------------------------------|---------------------------------|
B|---------------------------------|---------------------------------|
G|---------------------------------|-7---7-7---7-7-7-7---7-7---7-7-7-|
D|-5---5-5---5-5-5-5---5-5---5-5-5-|-7---7-7---7-7-7-7---7-7---7-7-7-|
A|-5---5-5---5-5-5-5---5-5---5-5-5-|-5---5-5---5-5-5-5---5-5---5-5-5-|
E|-3---3-3---3-3-3-3---3-3---3-3-3-|---------------------------------|


[Verse 1]

e|---------------------------------|---------------------------------|
B|---------------------------------|---------------------------------|
G|---------------------------------|-5---5-5---5-5-5-5---5-5---5-5-5-|
D|-7---7-7---7-7-7-7---7-7---7-7-7-|-5---5-5---5-5-5-5---5-5---5-5-5-|
A|-7---7-7---7-7-7-7---7-7---7-7-7-|-3---3-3---3-3-3-3---3-3---3-3-3-|
E|-5---5-5---5-5-5-5---5-5---5-5-5-|---------------------------------|

e|---------------------------------|---------------------------------|
B|---------------------------------|---------------------------------|
G|---------------------------------|-7---7-7---7-7-7-7---7-7---7-7-7-|
D|-5---5-5---5-5-5-5---5-5---5-5-5-|-7---7-7---7-7-7-7---7-7---7-7-7-|
A|-5---5-5---5-5-5-5---5-5---5-5-5-|-5---5-5---5-5-5-5---5-5---5-5-5-|
E|-3---3-3---3-3-3-3---3-3---3-3-3-|---------------------------------|(x2)


[Chorus 1]

e|---------------------------------|---------------------------------|
B|---------------------------------|---------------------------------|
G|---------------------------------|-5---5-5---5-5-5-5---5-5---5-5-5-|
D|-7---7-7---7-7-7-7---7-7---7-7-7-|-5---5-5---5-5-5-5---5-5---5-5-5-|
A|-7---7-7---7-7-7-7---7-7---7-7-7-|-3---3-3---3-3-3-3---3-3---3-3-3-|
E|-5---5-5---5-5-5-5---5-5---5-5-5-|---------------------------------|

e|---------------------------------|---------------------------------|
B|---------------------------------|---------------------------------|
G|---------------------------------|-7---7-7---7-7-7-7---7-7---7-7-7-|
D|-5---5-5---5-5-5-5---5-5---5-5-5-|-7---7-7---7-7-7-7---7-7---7-7-7-|
A|-5---5-5---5-5-5-5---5-5---5-5-5-|-5---5-5---5-5-5-5---5-5---5-5-5-|
E|-3---3-3---3-3-3-3---3-3---3-3-3-|---------------------------------|(x2)


[Post-Chorus]

e|---------------------------------|---------------------------------|
B|---------------------------------|---------------------------------|
G|---------------------------------|-5---5-5---5-5-5-5---5-5---5-5-5-|
D|-7---7-7---7-7-7-7---7-7---7-7-7-|-5---5-5---5-5-5-5---5-5---5-5-5-|
A|-7---7-7---7-7-7-7---7-7---7-7-7-|-3---3-3---3-3-3-3---3-3---3-3-3-|
E|-5---5-5---5-5-5-5---5-5---5-5-5-|---------------------------------|

e|---------------------------------|---------------------------------|
B|---------------------------------|---------------------------------|
G|---------------------------------|-7---7-7---7-7-7-7---7-7---7-7-7-|
D|-5---5-5---5-5-5-5---5-5---5-5-5-|-7---7-7---7-7-7-7---7-7---7-7-7-|
A|-5---5-5---5-5-5-5---5-5---5-5-5-|-5---5-5---5-5-5-5---5-5---5-5-5-|
E|-3---3-3---3-3-3-3---3-3---3-3-3-|---------------------------------|(x2)


[Verse 2]

e|---------------------------------|---------------------------------|
B|---------------------------------|---------------------------------|
G|---------------------------------|-5---5-5---5-5-5-5---5-5---5-5-5-|
D|-7---7-7---7-7-7-7---7-7---7-7-7-|-5---5-5---5-5-5-5---5-5---5-5-5-|
A|-7---7-7---7-7-7-7---7-7---7-7-7-|-3---3-3---3-3-3-3---3-3---3-3-3-|
E|-5---5-5---5-5-5-5---5-5---5-5-5-|---------------------------------|

e|---------------------------------|---------------------------------|
B|---------------------------------|---------------------------------|
G|---------------------------------|-7---7-7---7-7-7-7---7-7---7-7-7-|
D|-5---5-5---5-5-5-5---5-5---5-5-5-|-7---7-7---7-7-7-7---7-7---7-7-7-|
A|-5---5-5---5-5-5-5---5-5---5-5-5-|-5---5-5---5-5-5-5---5-5---5-5-5-|
E|-3---3-3---3-3-3-3---3-3---3-3-3-|---------------------------------|(x2)


[Chorus 2]

e|---------------------------------|---------------------------------|
B|---------------------------------|---------------------------------|
G|---------------------------------|-5---5-5---5-5-5-5---5-5---5-5-5-|
D|-7---7-7---7-7-7-7---7-7---7-7-7-|-5---5-5---5-5-5-5---5-5---5-5-5-|
A|-7---7-7---7-7-7-7---7-7---7-7-7-|-3---3-3---3-3-3-3---3-3---3-3-3-|
E|-5---5-5---5-5-5-5---5-5---5-5-5-|---------------------------------|

e|---------------------------------|---------------------------------|
B|---------------------------------|---------------------------------|
G|---------------------------------|-7---7-7---7-7-7-7---7-7---7-7-7-|
D|-5---5-5---5-5-5-5---5-5---5-5-5-|-7---7-7---7-7-7-7---7-7---7-7-7-|
A|-5---5-5---5-5-5-5---5-5---5-5-5-|-5---5-5---5-5-5-5---5-5---5-5-5-|
E|-3---3-3---3-3-3-3---3-3---3-3-3-|---------------------------------|(x2)


[Post-Chorus]

e|---------------------------------|---------------------------------|
B|---------------------------------|---------------------------------|
G|---------------------------------|-5---5-5---5-5-5-5---5-5---5-5-5-|
D|-7---7-7---7-7-7-7---7-7---7-7-7-|-5---5-5---5-5-5-5---5-5---5-5-5-|
A|-7---7-7---7-7-7-7---7-7---7-7-7-|-3---3-3---3-3-3-3---3-3---3-3-3-|
E|-5---5-5---5-5-5-5---5-5---5-5-5-|---------------------------------|

e|---------------------------------|---------------------------------|
B|---------------------------------|---------------------------------|
G|---------------------------------|-7---7-7---7-7-7-7---7-7---7-7-7-|
D|-5---5-5---5-5-5-5---5-5---5-5-5-|-7---7-7---7-7-7-7---7-7---7-7-7-|
A|-5---5-5---5-5-5-5---5-5---5-5-5-|-5---5-5---5-5-5-5---5-5---5-5-5-|
E|-3---3-3---3-3-3-3---3-3---3-3-3-|---------------------------------|(x2)


[Chorus 3]

e|---------------------------------|---------------------------------|
B|---------------------------------|---------------------------------|
G|---------------------------------|-5---5-5---5-5-5-5---5-5---5-5-5-|
D|-7---7-7---7-7-7-7---7-7---7-7-7-|-5---5-5---5-5-5-5---5-5---5-5-5-|
A|-7---7-7---7-7-7-7---7-7---7-7-7-|-3---3-3---3-3-3-3---3-3---3-3-3-|
E|-5---5-5---5-5-5-5---5-5---5-5-5-|---------------------------------|

e|---------------------------------|---------------------------------|
B|---------------------------------|---------------------------------|
G|---------------------------------|-7---7-7---7-7-7-7---7-7---7-7-7-|
D|-5---5-5---5-5-5-5---5-5---5-5-5-|-7---7-7---7-7-7-7---7-7---7-7-7-|
A|-5---5-5---5-5-5-5---5-5---5-5-5-|-5---5-5---5-5-5-5---5-5---5-5-5-|
E|-3---3-3---3-3-3-3---3-3---3-3-3-|---------------------------------|(x2)


[Outro]

e|---|
B|---|
G|---|
D|-7-|
A|-7-|
E|-5-|

Suggest correction
Give kudos to tab author, rate the tab!
1 2 3 4 5
comments
print report bad tab
guest
You may want to rate the tab now too:
select rating
Wanna post a correction for this tab? Suggest correction