Oops, an error
Loading. Please wait.

G Diddly Tab

1 view 1 this week
no commentswrite comment
1 2 3 4 5
3 more votes to show rating
add to favorites
launch autoscroll
font size
0
reset
how to read this tab
guitar tuner
Autoscroll
slow
fast
+/-
esc
set tempo
stop
Help us to improve Ultimate-Guitar.com Take our survey!
×
Author
Difficulty
novice
G Diddly
Dog Party
Vol. 4 (2015)

Standard Tuning


[Verse 1]

e|-----------------------|-------------------------|-----------------------|-------------------------|
B|-----------------------|-------------------------|-----------------------|-------------------------|
G|-----------------------|-------------------------|-----------------------|-------------------------|
D|-----------------------|-------------------------|-----------------------|-------------------------|
A|-14---14-14-14-12---11-|-11-11-11-11-11-11-11-11-|-14---14-14-14-12---11-|-11-11-11-11-11-11-11-11-|
E|-0----0--0--0--0----0--|-0--0--0--0--0--0--0--0--|-0----0--0--0--0----0--|-0--0--0--0--0--0--0--0--|

e|-----------------------|-------------------------|-----------------------|-------------------------|
B|-----------------------|-------------------------|-----------------------|-------------------------|
G|-----------------------|-------------------------|-----------------------|-------------------------|
D|-14---14-14-14-12---11-|-11-11-11-11-11-11-11-11-|-----------------------|-------------------------|
A|-0----0--0--0--0----0--|-0--0--0--0--0--0--0--0--|-14---14-14-14-12---11-|-11-11-11-11-11-11-11-11-|
E|-----------------------|-------------------------|-0----0--0--0--0----0--|-0--0--0--0--0--0--0--0--|

e|-----------------------|-------------------------|-----------------------|-------------------------|
B|-----------------------|-------------------------|-----------------------|-------------------------|
G|-----------------------|-------------------------|-----------------------|-------------------------|
D|-----------------------|-------------------------|-----------------------|-------------------------|
A|-14---14-14-14-12---11-|-11-11-11-11-11-11-11-11-|-14---14-14-14-12---11-|-11-11-11-11-11-11-11-11-|
E|-0----0--0--0--0----0--|-0--0--0--0--0--0--0--0--|-0----0--0--0--0----0--|-0--0--0--0--0--0--0--0--|

e|----------------------|-----------------|-----------------------|-------------------------|
B|----------------------|-----------------|-----------------------|-------------------------|
G|----------------------|-----------------|-----------------------|-------------------------|
D|-11---11-11-11-11---9-|-7-7-7-7-7-7-7-7-|-----------------------|-------------------------|
A|-0----0--0--0--0----0-|-0-0-0-0-0-0-0-0-|-14---14-14-14-12---11-|-11-11-11-11-11-11-11-11-|
E|----------------------|-----------------|-0----0--0--0--0----0--|-0--0--0--0--0--0--0--0--|

e|-0-0-0-0-0-0-0-0-|-0-0-0-0-0-0-0-0-|
B|-0-0-0-0-0-0-0-0-|-0-0-0-0-0-0-0-0-|
G|-1-1-1-1-1-1-1-1-|-1-1-1-1-1-1-1-1-|
D|-2-2-2-2-2-2-2-2-|-2-2-2-2-2-2-2-2-|
A|-2-2-2-2-2-2-2-2-|-2-2-2-2-2-2-2-2-|
E|-0-0-0-0-0-0-0-0-|-0-0-0-0-0-0-0-0-|


[Verse 2]


e|-0---0---0-0-0-0-|-0---0---0-0-0-0-|-0---0---0-0-0-0-|-0---0---0-0-0-0-|
B|-0---0---0-0-0-0-|-0---0---0-0-0-0-|-0---0---0-0-0-0-|-0---0---0-0-0-0-|
G|-1---1---1-1-1-1-|-1---1---1-1-1-1-|-1---1---1-1-1-1-|-1---1---1-1-1-1-|
D|-2---2---2-2-2-2-|-2---2---2-2-2-2-|-2---2---2-2-2-2-|-2---2---2-2-2-2-|
A|-2---2---2-2-2-2-|-2---2---2-2-2-2-|-2---2---2-2-2-2-|-2---2---2-2-2-2-|
E|-0---0---0-0-0-0-|-0---0---0-0-0-0-|-0---0---0-0-0-0-|-0---0---0-0-0-0-|

e|-0---0---0-0-0-0-|-0---0---0-0-0-0-|-0---0---0-0-0-0-|-0---0---0-0-0-0-|
B|-2---2---2-2-2-2-|-2---2---2-2-2-2-|-0---0---0-0-0-0-|-0---0---0-0-0-0-|
G|-2---2---2-2-2-2-|-2---2---2-2-2-2-|-1---1---1-1-1-1-|-1---1---1-1-1-1-|
D|-2---2---2-2-2-2-|-2---2---2-2-2-2-|-2---2---2-2-2-2-|-2---2---2-2-2-2-|
A|-0---0---0-0-0-0-|-0---0---0-0-0-0-|-2---2---2-2-2-2-|-2---2---2-2-2-2-|
E|-----------------|-----------------|-0---0---0-0-0-0-|-0---0---0-0-0-0-|(All x2)


[Verse 3]

e|-----------------------|-------------------------|-----------------------|-------------------------|
B|-----------------------|-------------------------|-----------------------|-------------------------|
G|-----------------------|-------------------------|-----------------------|-------------------------|
D|-----------------------|-------------------------|-----------------------|-------------------------|
A|-14---14-14-14-12---11-|-11-11-11-11-11-11-11-11-|-14---14-14-14-12---11-|-11-11-11-11-11-11-11-11-|
E|-0----0--0--0--0----0--|-0--0--0--0--0--0--0--0--|-0----0--0--0--0----0--|-0--0--0--0--0--0--0--0--|

e|-----------------------|-------------------------|-----------------------|-------------------------|
B|-----------------------|-------------------------|-----------------------|-------------------------|
G|-----------------------|-------------------------|-----------------------|-------------------------|
D|-14---14-14-14-12---11-|-11-11-11-11-11-11-11-11-|-----------------------|-------------------------|
A|-0----0--0--0--0----0--|-0--0--0--0--0--0--0--0--|-14---14-14-14-12---11-|-11-11-11-11-11-11-11-11-|
E|-----------------------|-------------------------|-0----0--0--0--0----0--|-0--0--0--0--0--0--0--0--|

e|-----------------------|-------------------------|-----------------------|-------------------------|
B|-----------------------|-------------------------|-----------------------|-------------------------|
G|-----------------------|-------------------------|-----------------------|-------------------------|
D|-----------------------|-------------------------|-----------------------|-------------------------|
A|-14---14-14-14-12---11-|-11-11-11-11-11-11-11-11-|-14---14-14-14-12---11-|-11-11-11-11-11-11-11-11-|
E|-0----0--0--0--0----0--|-0--0--0--0--0--0--0--0--|-0----0--0--0--0----0--|-0--0--0--0--0--0--0--0--|

e|----------------------|-----------------|-----------------------|-------------------------|
B|----------------------|-----------------|-----------------------|-------------------------|
G|----------------------|-----------------|-----------------------|-------------------------|
D|-11---11-11-11-11---9-|-7-7-7-7-7-7-7-7-|-----------------------|-------------------------|
A|-0----0--0--0--0----0-|-0-0-0-0-0-0-0-0-|-14---14-14-14-12---11-|-11-11-11-11-11-11-11-11-|
E|----------------------|-----------------|-0----0--0--0--0----0--|-0--0--0--0--0--0--0--0--|

e|-0-0-0-0-0-0-0-0-|-0-0-0-0-0-0-0-0-|
B|-0-0-0-0-0-0-0-0-|-0-0-0-0-0-0-0-0-|
G|-1-1-1-1-1-1-1-1-|-1-1-1-1-1-1-1-1-|
D|-2-2-2-2-2-2-2-2-|-2-2-2-2-2-2-2-2-|
A|-2-2-2-2-2-2-2-2-|-2-2-2-2-2-2-2-2-|
E|-0-0-0-0-0-0-0-0-|-0-0-0-0-0-0-0-0-|


[Verse 4]

e|-0---0---0-0-0-0-|-0---0---0-0-0-0-|-0---0---0-0-0-0-|-0---0---0-0-0-0-|
B|-0---0---0-0-0-0-|-0---0---0-0-0-0-|-0---0---0-0-0-0-|-0---0---0-0-0-0-|
G|-1---1---1-1-1-1-|-1---1---1-1-1-1-|-1---1---1-1-1-1-|-1---1---1-1-1-1-|
D|-2---2---2-2-2-2-|-2---2---2-2-2-2-|-2---2---2-2-2-2-|-2---2---2-2-2-2-|
A|-2---2---2-2-2-2-|-2---2---2-2-2-2-|-2---2---2-2-2-2-|-2---2---2-2-2-2-|
E|-0---0---0-0-0-0-|-0---0---0-0-0-0-|-0---0---0-0-0-0-|-0---0---0-0-0-0-|

e|-0---0---0-0-0-0-|-0---0---0-0-0-0-|-0---0---0-0-0-0-|-0---0---0-0-0-0-|
B|-2---2---2-2-2-2-|-2---2---2-2-2-2-|-0---0---0-0-0-0-|-0---0---0-0-0-0-|
G|-2---2---2-2-2-2-|-2---2---2-2-2-2-|-1---1---1-1-1-1-|-1---1---1-1-1-1-|
D|-2---2---2-2-2-2-|-2---2---2-2-2-2-|-2---2---2-2-2-2-|-2---2---2-2-2-2-|
A|-0---0---0-0-0-0-|-0---0---0-0-0-0-|-2---2---2-2-2-2-|-2---2---2-2-2-2-|
E|-----------------|-----------------|-0---0---0-0-0-0-|-0---0---0-0-0-0-|

e|-0---0---0-0-0-0-|-0---0---0-0-0-0-|-0---0---0-0-0-0-|-0---0---0-0-0-0-|
B|-0---0---0-0-0-0-|-0---0---0-0-0-0-|-0---0---0-0-0-0-|-0---0---0-0-0-0-|
G|-1---1---1-1-1-1-|-1---1---1-1-1-1-|-1---1---1-1-1-1-|-1---1---1-1-1-1-|
D|-2---2---2-2-2-2-|-2---2---2-2-2-2-|-2---2---2-2-2-2-|-2---2---2-2-2-2-|
A|-2---2---2-2-2-2-|-2---2---2-2-2-2-|-2---2---2-2-2-2-|-2---2---2-2-2-2-|
E|-0---0---0-0-0-0-|-0---0---0-0-0-0-|-0---0---0-0-0-0-|-0---0---0-0-0-0-|

e|-0---0---0-0-0-0-|-0---0---0-0-0-0-|-0---------------|
B|-2---2---2-2-2-2-|-2---2---2-2-2-2-|-0---------------|
G|-2---2---2-2-2-2-|-2---2---2-2-2-2-|-1---------------|
D|-2---2---2-2-2-2-|-2---2---2-2-2-2-|-2---------------|
A|-0---0---0-0-0-0-|-0---0---0-0-0-0-|-2---------------|
E|-----------------|-----------------|-0---------------|

Suggest correction
Give kudos to tab author, rate the tab!
1 2 3 4 5
comments
print report bad tab
guest
You may want to rate the tab now too:
select rating
Wanna post a correction for this tab? Suggest correction