Oops, an error
Loading. Please wait.

I Cant Believe That Youre Real Tab

10 views 1 this week
no commentswrite comment
1 2 3 4 5
3 more votes to show rating
add to favorites
launch autoscroll
font size
0
reset
how to read this tab
guitar tuner
Autoscroll
slow
fast
+/-
esc
set tempo
stop
Help us to improve Ultimate-Guitar.com Take our survey!
×
Author
Difficulty
novice
I Can't Believe That You're Real
Dog Party
Vol. 4 (2015)

Standard Tuning


[Intro]

e|-----------------|-----------------|-----------------|-----------------|
B|-----------------|-----------------|-----------------|-----------------|
G|-6-6-6-6---6-6-6-|-6-6-6-6---6-6-6-|-6-6-6-6---6-6-6-|-6-6-6-6---6-6-6-|
D|-6-6-6-6---6-6-6-|-6-6-6-6---6-6-6-|-6-6-6-6---6-6-6-|-6-6-6-6---6-6-6-|
A|-4-4-4-4---4-4-4-|-4-4-4-4---4-4-4-|-4-4-4-4---4-4-4-|-4-4-4-4---4-4-4-|
E|-----------------|-----------------|-----------------|-----------------|


[Verse 1]

e|-----------------|-----------------|-----------------|-----------------|
B|-----------------|-----------------|-----------------|-----------------|
G|-6---6-6---6-6-6-|-6---6-6---6-6-6-|-6---6-6---6-6-6-|-6---6-6---6-6-6-|
D|-6---6-6---6-6-6-|-6---6-6---6-6-6-|-6---6-6---6-6-6-|-6---6-6---6-6-6-|
A|-4---4-4---4-4-4-|-4---4-4---4-4-4-|-4---4-4---4-4-4-|-4---4-4---4-4-4-|
E|-----------------|-----------------|-----------------|-----------------|

e|-----------------|-----------------|-----------------|-----------------|
B|-----------------|-----------------|-----------------|-----------------|
G|-----------------|-----------------|-----------------|-----------------|
D|-6---6-6---6-6-6-|-6---6-6---6-6-6-|-6---6-6---6-6-6-|-6---6-6---6-6-6-|
A|-6---6-6---6-6-6-|-6---6-6---6-6-6-|-6---6-6---6-6-6-|-6---6-6---6-6-6-|
E|-4---4-4---4-4-4-|-4---4-4---4-4-4-|-4---4-4---4-4-4-|-4---4-4---4-4-4-|

e|-----------------|-----------------|-----------------|-----------------|
B|-----------------|-----------------|-----------------|-----------------|
G|-6---6-6---6-6-6-|-6---6-6---6-6-6-|-3---3-3---3-3-3-|-8---8-8---8-8-8-|
D|-6---6-6---6-6-6-|-6---6-6---6-6-6-|-3---3-3---3-3-3-|-8---8-8---8-8-8-|
A|-4---4-4---4-4-4-|-4---4-4---4-4-4-|-1---1-1---1-1-1-|-6---6-6---6-6-6-|
E|-----------------|-----------------|-----------------|-----------------|

e|-----------------|-----------------|-----------------|-----------------|
B|-----------------|-----------------|-----------------|-----------------|
G|-----------------|-----------------|-----------------|-----------------|
D|-6---6-6---6-6-6-|-6---6-6---6-6-6-|-6---6-6---6-6-6-|-6---6-6---6-6-6-|
A|-6---6-6---6-6-6-|-6---6-6---6-6-6-|-6---6-6---6-6-6-|-6---6-6---6-6-6-|
E|-4---4-4---4-4-4-|-4---4-4---4-4-4-|-4---4-4---4-4-4-|-4---4-4---4-4-4-|


[Chorus 1]

e|-----------------|-----------------|-----------------|-----------------|
B|-----------------|-----------------|-----------------|-----------------|
G|-6-6-6-6---6-----|-6-6-6-6-6---6-6-|-----------------|-----------------|
D|-6-6-6-6---6-----|-6-6-6-6-6---6-6-|-6---6-6---6-6-6-|-6---6-6---6-6-6-|
A|-4-4-4-4---4-----|-4-4-4-4-4---4-4-|-6---6-6---6-6-6-|-6---6-6---6-6-6-|
E|-----------------|-----------------|-4---4-4---4-4-4-|-4---4-4---4-4-4-|(x2)


[Verse 2]

e|-----------------|-----------------|-----------------|-----------------|
B|-----------------|-----------------|-----------------|-----------------|
G|-6---6-6---6-6-6-|-6---6-6---6-6-6-|-6---6-6---6-6-6-|-6---6-6---6-6-6-|
D|-6---6-6---6-6-6-|-6---6-6---6-6-6-|-6---6-6---6-6-6-|-6---6-6---6-6-6-|
A|-4---4-4---4-4-4-|-4---4-4---4-4-4-|-4---4-4---4-4-4-|-4---4-4---4-4-4-|
E|-----------------|-----------------|-----------------|-----------------|

e|-----------------|-----------------|-----------------|-----------------|
B|-----------------|-----------------|-----------------|-----------------|
G|-----------------|-----------------|-----------------|-----------------|
D|-6---6-6---6-6-6-|-6---6-6---6-6-6-|-6---6-6---6-6-6-|-6---6-6---6-6-6-|
A|-6---6-6---6-6-6-|-6---6-6---6-6-6-|-6---6-6---6-6-6-|-6---6-6---6-6-6-|
E|-4---4-4---4-4-4-|-4---4-4---4-4-4-|-4---4-4---4-4-4-|-4---4-4---4-4-4-|

e|-----------------|-----------------|-----------------|-----------------|
B|-----------------|-----------------|-----------------|-----------------|
G|-6---6-6---6-6-6-|-6---6-6---6-6-6-|-3---3-3---3-3-3-|-8---8-8---8-8-8-|
D|-6---6-6---6-6-6-|-6---6-6---6-6-6-|-3---3-3---3-3-3-|-8---8-8---8-8-8-|
A|-4---4-4---4-4-4-|-4---4-4---4-4-4-|-1---1-1---1-1-1-|-6---6-6---6-6-6-|
E|-----------------|-----------------|-----------------|-----------------|

e|-----------------|-----------------|-----------------|-----------------|
B|-----------------|-----------------|-----------------|-----------------|
G|-----------------|-----------------|-----------------|-----------------|
D|-6---6-6---6-6-6-|-6---6-6---6-6-6-|-6---6-6---6-6-6-|-6---6-6---6-6-6-|
A|-6---6-6---6-6-6-|-6---6-6---6-6-6-|-6---6-6---6-6-6-|-6---6-6---6-6-6-|
E|-4---4-4---4-4-4-|-4---4-4---4-4-4-|-4---4-4---4-4-4-|-4---4-4---4-4-4-|


[Chorus 2]

e|-----------------|-----------------|-----------------|-----------------|
B|-----------------|-----------------|-----------------|-----------------|
G|-6-6-6-6---6-----|-6-6-6-6-6---6-6-|-----------------|-----------------|
D|-6-6-6-6---6-----|-6-6-6-6-6---6-6-|-6---6-6---6-6-6-|-6---6-6---6-6-6-|
A|-4-4-4-4---4-----|-4-4-4-4-4---4-4-|-6---6-6---6-6-6-|-6---6-6---6-6-6-|
E|-----------------|-----------------|-4---4-4---4-4-4-|-4---4-4---4-4-4-|(x2)


[Outro]

e|-----------------|-----------------|-----------------|-----------------|
B|-----------------|-----------------|-----------------|-----------------|
G|-8---8-8---8-8-8-|-6---6-6---6-6-6-|-----------------|-----------------|
D|-8---8-8---8-8-8-|-6---6-6---6-6-6-|-6---6-6---6-6-6-|-6---6-6---6-6-6-|
A|-6---6-6---6-6-6-|-4---4-4---4-4-4-|-6---6-6---6-6-6-|-6---6-6---6-6-6-|
E|-----------------|-----------------|-4---4-4---4-4-4-|-4---4-4---4-4-4-|(x4)

e|-----------------|-----------------|-----------------|
B|-----------------|-----------------|-----------------|
G|-8---------------|-6---------------|-----------------|
D|-8---------------|-6---------------|-6---------------|
A|-6---------------|-4---------------|-6---------------|
E|-----------------|-----------------|-4---------------|



Suggest correction
Give kudos to tab author, rate the tab!
1 2 3 4 5
comments
print report bad tab
guest
You may want to rate the tab now too:
select rating
Wanna post a correction for this tab? Suggest correction