Oops, an error
Loading. Please wait.

Jet Pack tab

31 views 1 this week
no commentswrite comment
1 2 3 4 5
3 more votes to show rating
add to favorites
×
Save as Personal and add changes to this tab that will be seen only by you. Learn more ›
×
You can save this tab as Personal to edit and correct it or add notes. All changes will be seen only by you. Learn more »
launch autoscroll
font size
0
reset
how to read this tab
guitar tuner
edit
Autoscroll
slow
fast
+/-
esc
set tempo
stop
[Verse]
e|----------------|---------------|-----------|--------------------|
B|----------------|---------------|-----------|--------------------|
G|----------------|---------------|7---7-7---7|--------------------|
D|-7---7-7---7-7-7|7---7-7---7-7-7|7---7-7---7|7-7-7---7-7---7-7-7-|
A|-7---7-7---7-7-7|7---7-7---7-7-7|5---5-5---5|7-7-7---7-7---7-7-7-|
E|-5---5-5---5-5-5|5---5-5---5-5-5|-----------|5-5-5---5-5---5-5-5-|

e|----------------|---------------|-----------|--------------------|
B|----------------|---------------|-----------|--------------------|
G|----------------|--------------7|7---7-7---7|--------------------|
D|-7---7-7---7-7-7|7---7-7---7-7-7|7---7-7---7|7-7-7---7-7---7-7-7-| (x3)
A|-7---7-7---7-7-7|7---7-7---7-7-5|5---5-5---5|7-7-7---7-7---7-7-7-|
E|-5---5-5---5-5-5|5---5-5---5-5--|-----------|5-5-5---5-5---5-5-5-|

[Pre-chorus]
e|--------------------------------|---------------------------------|
B|--------------------------------|---------------------------------|
G|--------------------------------|-7---7-7---7-7-7-7---7-7---7-----|
D|-7------------------------------|-7---7-7---7-7-7-7---7-7---7-7-7-| 
A|-7------------------------------|-5---5-5---5-5-5-5---5-5---5-7-7-|
E|-5------------------------------|-----------------------------5-5-|

e|--------------------------------|---------------------------------|
B|--------------------------------|---------------------------------|
G|--------------------------------|-7---7-7---7-7-7-7---7-7---7-7/9-|
D|-7------------------------------|-7---7-7---7-7-7-7---7-7---7-7/9-| 
A|-7------------------------------|-5---5-5---5-5-5-5---5-5---5-5/7-|
E|-5------------------------------|---------------------------------|

[Chorus]
e|-----------------------------------------------------------------|
B|-----------------------------------------------------------------|
G|-9---9-9---9-9-9-9---9-9---9-9-9-9---9-9---9-9-9-9---9-9---9-9---|
D|-9---9-9---9-9-9-9---9-9---9-9-9-9---9-9---9-9-9-9---9-9---9-9-7-|
A|-7---7-7---7-7-7-7---7-7---7-7-7-7---7-7---7-7-7-7---7-7---7-7-7-|
E|---------------------------------------------------------------5-|

e|-----------------|
B|-----------------|
G|-----------------|
D|-7---7-7---7-7-7-| (x4)
A|-7---7-7---7-7-7-|
E|-5---5-5---5-5-5-|

[Verse]
e|----------------|---------------|-----------|--------------------|
B|----------------|---------------|-----------|--------------------|
G|----------------|--------------7|7---7-7---7|--------------------|
D|-7---7-7---7-7-7|7---7-7---7-7-7|7---7-7---7|7-7-7---7-7---7-7-7-| (x4)
A|-7---7-7---7-7-7|7---7-7---7-7-5|5---5-5---5|7-7-7---7-7---7-7-7-|
E|-5---5-5---5-5-5|5---5-5---5-5--|-----------|5-5-5---5-5---5-5-5-|

[Pre-chorus]
e|--------------------------------|---------------------------------|
B|--------------------------------|---------------------------------|
G|--------------------------------|-7---7-7---7-7-7-7---7-7---7-----|
D|-7------------------------------|-7---7-7---7-7-7-7---7-7---7-7-7-| 
A|-7------------------------------|-5---5-5---5-5-5-5---5-5---5-7-7-|
E|-5------------------------------|-----------------------------5-5-|

e|--------------------------------|---------------------------------|
B|--------------------------------|---------------------------------|
G|--------------------------------|-7---7-7---7-7-7-7---7-7---7-7/9-|
D|-7------------------------------|-7---7-7---7-7-7-7---7-7---7-7/9-| 
A|-7------------------------------|-5---5-5---5-5-5-5---5-5---5-5/7-|
E|-5------------------------------|---------------------------------|

[Chorus]
e|------------------------------------------------------------------|
B|------------------------------------------------------------------|
G|--9---9-9---9-9-9-9---9-9---9-9-9-9---9-9---9-9-9-9---9-9---9-9---|
D|--9---9-9---9-9-9-9---9-9---9-9-9-9---9-9---9-9-9-9---9-9---9-9-7-|
A|--7---7-7---7-7-7-7---7-7---7-7-7-7---7-7---7-7-7-7---7-7---7-7-7-|
E|----------------------------------------------------------------5-|

e|-----------------|
B|-----------------|
G|-----------------|
D|-7---7-7---7-7-7-| (x4)
A|-7---7-7---7-7-7-|
E|-5---5-5---5-5-5-|

[Verse]
e|----------------|---------------|-----------|--------------------|
B|----------------|---------------|-----------|--------------------|
G|----------------|--------------7|7---7-7---7|--------------------|
D|-7---7-7---7-7-7|7---7-7---7-7-7|7---7-7---7|7-7-7---7-7---7-7-7-| (x4)
A|-7---7-7---7-7-7|7---7-7---7-7-5|5---5-5---5|7-7-7---7-7---7-7-7-|
E|-5---5-5---5-5-5|5---5-5---5-5--|-----------|5-5-5---5-5---5-5-5-|

[Pre-chorus]
e|----------------------------------|---------------------------------|
B|----------------------------------|---------------------------------|
G|----------------------------------|-7---7-7---7-7-7-7---7-7---7-----|
D|-7--------------------------------|-7---7-7---7-7-7-7---7-7---7-7-7-| 
A|-7--------------------------------|-5---5-5---5-5-5-5---5-5---5-7-7-|
E|-5--------------------------------|-----------------------------5-5-|

e|----------------------------------|---------------------------------|
B|----------------------------------|---------------------------------|
G|----------------------------------|-7---7-7---7-7-7-7---7-7---7-7/9-|
D|-7--------------------------------|-7---7-7---7-7-7-7---7-7---7-7/9-| 
A|-7--------------------------------|-5---5-5---5-5-5-5---5-5---5-5/7-|
E|-5--------------------------------|---------------------------------|

[Chorus]
e|-------------------------------------------------------------------|
B|-------------------------------------------------------------------|
G|-9---9-9---9-9-9-9---9-9---9-9-9-9---9-9---9-9-9-9---9-9---9-------|
D|-9---9-9---9-9-9-9---9-9---9-9-9-9---9-9---9-9-9-9---9-9---9-11-11-|
A|-7---7-7---7-7-7-7---7-7---7-7-7-7---7-7---7-7-7-7---7-7---7-11-11-|
E|-------------------------------------------------------------9--9--|

e|----------------------------------|-----------------------------------|
B|----------------------------------|-----------------------------------|
G|----------------------------------|-9---9-9---9-9-9-9---9-9---9-------|
D|-11-------------------------------|-9---9-9---9-9-9-9---9-9---9-11-11-|
A|-11-------------------------------|-7---7-7---7-7-7-7---7-7---7-11-11-|
E|-9--------------------------------|-----------------------------9--9--|

e|----------------------------------|----------------------------------|
B|----------------------------------|----------------------------------|
G|----------------------------------|-9---9-9---9-9-9-9---9-9---9-9/11-|
D|-11-------------------------------|-9---9-9---9-9-9-9---9-9---9-9/11-|
A|-11-------------------------------|-7---7-7---7-7-7-7---7-7---7-7-11-|
E|-9--------------------------------|----------------------------------|

e|----------------------|---------------------|------------------------------------------|
B|----------------------|---------------------|------------------------------------------|
G|-11---11-11---11-11-11|11---11-11---11-11-11|11---11-11---11-11-11|11---11-11---11-7/9-|
D|-11---11-11---11-11-11|11---11-11---11-11-11|11---11-11---11-11-11|11---11-11---11-7/9-|
A|-9----9--9----9--9--9-|9----9--9----9--9--9-|9----9--9----9--9--9-|9----9--9----9--5/7-|
E|----------------------|---------------------|------------------------------------------|

[Outro]
e|----------------|---------------|---------------|---------------|
B|----------------|---------------|---------------|---------------|
G|----------------|---------------|---------------|---------------|
D|-9---9-9---9-9-9|9---9-9---9-9-9|9---9-9---9-9-9|9---9-9-9---9-9| (x3)
A|-9---9-9---9-9-9|9---9-9---9-9-9|9---9-9---9-9-9|9---9-9-9---9-9|
E|-7---7-7---7-7-7|7---7-7---7-7-7|7---7-7---7-7-7|7---7-7-7---7-7|

e|----------------|---------------|---------------|--------------------------------------|
B|----------------|---------------|---------------|--------------------------------------|
G|----------------|---------------|---------------|--------------------------------------|
D|-9---9-9---9-9-9|9---9-9---9-9-9|9---9-9---9-9-9|9---9-9-9---9-9-9---------------------| 
A|-9---9-9---9-9-9|9---9-9---9-9-9|9---9-9---9-9-9|9---9-9-9---9-9-9---------------------|
E|-7---7-7---7-7-7|7---7-7---7-7-7|7---7-7---7-7-7|7---7-7-7---7-7-7---------------------|


************************************

| /   Slide up

************************************

            
            
Suggest correction
Creating personal tab
Creating personal tab
You can edit any tab online and save it as your Personal.

You can edit, replace or remove any tab part or add personal notes – all changes will be seen only by you.

Personal tabs can be accessed anytime from any device, even offline.
Learn more »
Give kudos to tab author, rate the tab!
1 2 3 4 5
comments
print report bad tab
guest
You may want to rate the tab now too:
select rating
Wanna post a correction for this tab? Suggest correction