Oops, an error
Loading. Please wait.

Lay Back Tab

10 views 1 this week
no commentswrite comment
1 2 3 4 5
3 more votes to show rating
add to favorites
launch autoscroll
font size
0
reset
how to read this tab
guitar tuner
Autoscroll
slow
fast
+/-
esc
set tempo
stop
Help us to improve Ultimate-Guitar.com Take our survey!
×
Author
Difficulty
novice
Lay Back!!!
Dog Party
'Til You're Mine (2016)

Standard Tuning


[Intro]

e|-----------------|-----------------|-----------------|-----------------|
B|-----------------|-----------------|-----------------|-----------------|
G|-----------------|-----------------|-----------------|-----------------|
D|-----------------|-----------------|-----------------|-----------------|
A|-0-0-3-3-5-5-7-7-|-0-0-3-3-5-5-7-7-|-0-0-3-3-5-5-7-7-|-0-0-3-3-5-5-7-7-|
E|-----------------|-----------------|-----------------|-----------------|


[Verse 1]

e|-----------------|-----------------|-----------------|-----------------|
B|-----------------|-----------------|-----------------|-----------------|
G|-----------------|-----------------|-----------------|-----------------|
D|-----------------|-----------------|-----------------|-----------------|
A|-0-0-3-3-5-5-7-7-|-0-0-3-3-5-5-7-7-|-0-0-3-3-5-5-7-7-|-0-0-3-3-5-5-7-7-|
E|-----------------|-----------------|-----------------|-----------------|

e|-----------------|-----------------|-----------------|-----------------|
B|-----------------|-----------------|-----------------|-----------------|
G|-----------------|-----------------|-----------------|-----------------|
D|-0-0-3-3-5-5-7-7-|-0-0-3-3-5-5-7-7-|-----------------|-----------------|
A|-----------------|-----------------|-0-0-3-3-5-5-7-7-|-0-0-3-3-5-5-7-7-|
E|-----------------|-----------------|-----------------|-----------------|


[Chorus]

e|-----------------|-----------------|-----------------|-----------------|
B|-----------------|-----------------|-----------------|-----------------|
G|-9-9-9-9-9-9-9-9-|-7---------------|-----------------|-9-9-9-9-9-9-9-9-|
D|-9-9-9-9-9-9-9-9-|-7---------------|-----------------|-9-9-9-9-9-9-9-9-|
A|-7-7-7-7-7-7-7-7-|-5---------------|-0-0-3-3-5-5-7-7-|-7-7-7-7-7-7-7-7-|
E|-----------------|-----------------|-----------------|-----------------|


[Verse 2]

e|-----------------|-----------------|-----------------|-----------------|
B|-----------------|-----------------|-----------------|-----------------|
G|-----------------|-----------------|-----------------|-----------------|
D|-----------------|-----------------|-----------------|-----------------|
A|-0-0-3-3-5-5-7-7-|-0-0-3-3-5-5-7-7-|-0-0-3-3-5-5-7-7-|-0-0-3-3-5-5-7-7-|
E|-----------------|-----------------|-----------------|-----------------|

e|-----------------|-----------------|-----------------|-----------------|
B|-----------------|-----------------|-----------------|-----------------|
G|-----------------|-----------------|-----------------|-----------------|
D|-0-0-3-3-5-5-7-7-|-0-0-3-3-5-5-7-7-|-----------------|-----------------|
A|-----------------|-----------------|-0-0-3-3-5-5-7-7-|-0-0-3-3-5-5-7-7-|
E|-----------------|-----------------|-----------------|-----------------|


[Chorus]

e|-----------------|-----------------|-----------------|-----------------|
B|-----------------|-----------------|-----------------|-----------------|
G|-9-9-9-9-9-9-9-9-|-7---------------|-----------------|-9-9-9-9-9-9-9-9-|
D|-9-9-9-9-9-9-9-9-|-7---------------|-----------------|-9-9-9-9-9-9-9-9-|
A|-7-7-7-7-7-7-7-7-|-5---------------|-0-0-3-3-5-5-7-7-|-7-7-7-7-7-7-7-7-|
E|-----------------|-----------------|-----------------|-----------------|


[Bridge] 

e|-----------------|-----------------|-----------------|-----------------|
B|-----------------|-----------------|-----------------|-----------------|
G|---------5-x-4-x-|---------5-x-4-x-|---------5-x-4-x-|---------5-x-4-x-|
D|-7-7-7-7-5-x-4-x-|-7-7-7-7-5-x-4-x-|-7-7-7-7-5-x-4-x-|-7-7-7-7-5-x-4-x-|
A|-7-7-7-7-3-x-2-x-|-7-7-7-7-3-x-2-x-|-7-7-7-7-3-x-2-x-|-7-7-7-7-3-x-2-x-|
E|-5-5-5-5---------|-5-5-5-5---------|-5-5-5-5---------|-5-5-5-5---------|

e|-----------------|-----------------|-----------------|-----------------|
B|-----------------|-----------------|-----------------|-----------------|
G|-7-7-7-7-7-7-7-7-|-9-9-9-9-9-9-9-9-|---------5-x-4-x-|---------5-x-4-x-|
D|-x-x-x-x-x-x-x-x-|-x-x-x-x-x-x-x-x-|-7-7-7-7-5-x-4-x-|-7-7-7-7-5-x-4-x-|
A|-5-5-5-5-5-5-5-5-|-7-7-7-7-7-7-7-7-|-7-7-7-7-3-x-2-x-|-7-7-7-7-3-x-2-x-|
E|-----------------|-----------------|-5-5-5-5---------|-5-5-5-5---------|


[Outro]

e|-----------------|-----------------|-----------------|
B|-----------------|-----------------|-----------------|
G|-9-9-9-9-9-9-9-9-|-7---------------|-2---------------|
D|-9-9-9-9-9-9-9-9-|-7---------------|-2---------------|
A|-7-7-7-7-7-7-7-7-|-5---------------|-0---------------|
E|-----------------|-----------------|-----------------|



************************************

| x  Dead note

************************************

Suggest correction
Give kudos to tab author, rate the tab!
1 2 3 4 5
comments
print report bad tab
guest
You may want to rate the tab now too:
select rating
Wanna post a correction for this tab? Suggest correction