Oops, an error
Loading. Please wait.

Lipstick Lips Tab

1 view 1 this week
no commentswrite comment
1 2 3 4 5
3 more votes to show rating
add to favorites
launch autoscroll
font size
0
reset
how to read this tab
guitar tuner
Autoscroll
slow
fast
+/-
esc
set tempo
stop
Help us to improve Ultimate-Guitar.com Take our survey!
×
Author
Difficulty
novice
Lipstick Lips
Dog Party
Vol. 4 (2015)

Standard Tuning


[Verse 1]

e|-----------------|-----------------|-----------------|-----------------|
B|-----------------|-----------------|-----------------|-----------------|
G|-----------------|-----------------|-----------------|-7---7-7-5---5-5-|
D|-7---7-7---7-7-7-|-7---7-7---7-7-7-|-7---7-7---7-7-7-|-7---7-7-5---5-5-|
A|-7---7-7---7-7-7-|-7---7-7---7-7-7-|-7---7-7---7-7-7-|-5---5-5-3---3-3-|
E|-5---5-5---5-5-5-|-5---5-5---5-5-5-|-5---5-5---5-5-5-|-----------------|(x2)


[Chorus 1]

e|-----------------|-----------------|-----------------|-----------------|
B|-----------------|-----------------|-----------------|-----------------|
G|-----------------|-----------------|-----------------|-----------------|
D|-4---4-4---4-4-4-|-4---4-4---4-4-4-|-5---5-5---5-5-5-|-5---5-5---5-5-5-|
A|-4---4-4---4-4-4-|-4---4-4---4-4-4-|-5---5-5---5-5-5-|-5---5-5---5-5-5-|
E|-2---2-2---2-2-2-|-2---2-2---2-2-2-|-3---3-3---3-3-3-|-3---3-3---3-3-3-|(x3)

e|-----------------|-----------------|-----------------|-----------------|
B|-----------------|-----------------|-----------------|-----------------|
G|-----------------|-----------------|-----------------|-----------------|
D|-4---4-4---4-4-4-|-4---4-4---4-4-4-|-5---5-5---5-5-5-|-4---4-4-3---3-3-|
A|-4---4-4---4-4-4-|-4---4-4---4-4-4-|-5---5-5---5-5-5-|-4---4-4-3---3-3-|
E|-2---2-2---2-2-2-|-2---2-2---2-2-2-|-3---3-3---3-3-3-|-2---2-2-1---1-1-|


[Post-Chorus]

e|-----------------|-----------------|-----------------|-----------------|
B|-----------------|-----------------|-----------------|-----------------|
G|-----------------|-----------------|-----------------|-----------------|
D|-7---7-7---7-7-7-|-7---7-7---7-7-7-|-7---7-7---7-7-7-|-4---4-4-3---3-3-|
A|-7---7-7---7-7-7-|-7---7-7---7-7-7-|-7---7-7---7-7-7-|-4---4-4-3---3-3-|
E|-5---5-5---5-5-5-|-5---5-5---5-5-5-|-5---5-5---5-5-5-|-2---2-2-1---1-1-|(x2)


[Verse 2]

e|-----------------|-----------------|-----------------|-----------------|
B|-----------------|-----------------|-----------------|-----------------|
G|-----------------|-----------------|-----------------|-7---7-7-5---5-5-|
D|-7---7-7---7-7-7-|-7---7-7---7-7-7-|-7---7-7---7-7-7-|-7---7-7-5---5-5-|
A|-7---7-7---7-7-7-|-7---7-7---7-7-7-|-7---7-7---7-7-7-|-5---5-5-3---3-3-|
E|-5---5-5---5-5-5-|-5---5-5---5-5-5-|-5---5-5---5-5-5-|-----------------|(x2)


[Chorus 2]

e|-----------------|-----------------|-----------------|-----------------|
B|-----------------|-----------------|-----------------|-----------------|
G|-----------------|-----------------|-----------------|-----------------|
D|-4---4-4---4-4-4-|-4---4-4---4-4-4-|-5---5-5---5-5-5-|-5---5-5---5-5-5-|
A|-4---4-4---4-4-4-|-4---4-4---4-4-4-|-5---5-5---5-5-5-|-5---5-5---5-5-5-|
E|-2---2-2---2-2-2-|-2---2-2---2-2-2-|-3---3-3---3-3-3-|-3---3-3---3-3-3-|(x3)

e|-----------------|-----------------|-----------------|-----------------|
B|-----------------|-----------------|-----------------|-----------------|
G|-----------------|-----------------|-----------------|-----------------|
D|-4---4-4---4-4-4-|-4---4-4---4-4-4-|-5---5-5---5-5-5-|-4---4-4-3---3-3-|
A|-4---4-4---4-4-4-|-4---4-4---4-4-4-|-5---5-5---5-5-5-|-4---4-4-3---3-3-|
E|-2---2-2---2-2-2-|-2---2-2---2-2-2-|-3---3-3---3-3-3-|-2---2-2-1---1-1-|


[Post-Chorus]

e|-----------------|-----------------|-----------------|-----------------|
B|-----------------|-----------------|-----------------|-----------------|
G|-----------------|-----------------|-----------------|-----------------|
D|-7---7-7---7-7-7-|-7---7-7---7-7-7-|-7---7-7---7-7-7-|-4---4-4-3---3-3-|
A|-7---7-7---7-7-7-|-7---7-7---7-7-7-|-7---7-7---7-7-7-|-4---4-4-3---3-3-|
E|-5---5-5---5-5-5-|-5---5-5---5-5-5-|-5---5-5---5-5-5-|-2---2-2-1---1-1-|(x2)


[Verse 3]

e|-----------------|-----------------|-----------------|-----------------|
B|-----------------|-----------------|-----------------|-----------------|
G|-----------------|-----------------|-----------------|-7---7-7-5---5-5-|
D|-7---7-7---7-7-7-|-7---7-7---7-7-7-|-7---7-7---7-7-7-|-7---7-7-5---5-5-|
A|-7---7-7---7-7-7-|-7---7-7---7-7-7-|-7---7-7---7-7-7-|-5---5-5-3---3-3-|
E|-5---5-5---5-5-5-|-5---5-5---5-5-5-|-5---5-5---5-5-5-|-----------------|(x2)


[Chorus 3]

e|-----------------|-----------------|-----------------|-----------------|
B|-----------------|-----------------|-----------------|-----------------|
G|-----------------|-----------------|-----------------|-----------------|
D|-4---4-4---4-4-4-|-4---4-4---4-4-4-|-5---5-5---5-5-5-|-5---5-5---5-5-5-|
A|-4---4-4---4-4-4-|-4---4-4---4-4-4-|-5---5-5---5-5-5-|-5---5-5---5-5-5-|
E|-2---2-2---2-2-2-|-2---2-2---2-2-2-|-3---3-3---3-3-3-|-3---3-3---3-3-3-|(x3)

e|-----------------|-----------------|-----------------|-----------------|
B|-----------------|-----------------|-----------------|-----------------|
G|-----------------|-----------------|-----------------|-----------------|
D|-4---4-4---4-4-4-|-4---4-4---4-4-4-|-5---5-5---5-5-5-|-4---4-4-3---3-3-|
A|-4---4-4---4-4-4-|-4---4-4---4-4-4-|-5---5-5---5-5-5-|-4---4-4-3---3-3-|
E|-2---2-2---2-2-2-|-2---2-2---2-2-2-|-3---3-3---3-3-3-|-2---2-2-1---1-1-|


[Outro]

e|-----------------|-----------------|-----------------|-----------------|
B|-----------------|-----------------|-----------------|-----------------|
G|-----------------|-----------------|-----------------|-----------------|
D|-7---7-7---7-7-7-|-7---7-7---7-7-7-|-7---7-7---7-7-7-|-4---4-4-3---3-3-|
A|-7---7-7---7-7-7-|-7---7-7---7-7-7-|-7---7-7---7-7-7-|-4---4-4-3---3-3-|
E|-5---5-5---5-5-5-|-5---5-5---5-5-5-|-5---5-5---5-5-5-|-2---2-2-1---1-1-|(x4)

e|---|
B|---|
G|---|
D|-7-|
A|-7-|
E|-5-|

Suggest correction
Give kudos to tab author, rate the tab!
1 2 3 4 5
comments
print report bad tab
guest
You may want to rate the tab now too:
select rating
Wanna post a correction for this tab? Suggest correction