Oops, an error
Loading. Please wait.

O Brave New World Tab

4 views 1 this week
no commentswrite comment
1 2 3 4 5
3 more votes to show rating
add to favorites
launch autoscroll
font size
0
reset
how to read this tab
guitar tuner
Autoscroll
slow
fast
+/-
esc
set tempo
stop
Help us to improve Ultimate-Guitar.com Take our survey!
×
Author
Difficulty
novice
O Brave New World
Dog Party
'Til You're Mine (2005)

Standard Tuning


[Intro]

e|-----------------|-----------------|-----------------|-----------------|
B|-----------------|-----------------|-----------------|-----------------|
G|-1-1-1-1-1-1-1-1-|-1-1-1-1-1-1-1-1-|-1-1-1-1-1-1-1-1-|-1-1-1-1-1-1-1-1-|
D|-2-2-2-2-2-2-2-2-|-2-2-2-2-2-2-2-2-|-2-2-2-2-2-2-2-2-|-2-2-2-2-2-2-2-2-|
A|-2-2-2-2-2-2-2-2-|-2-2-2-2-2-2-2-2-|-2-2-2-2-2-2-2-2-|-2-2-2-2-2-2-2-2-|
E|-0-0-0-0-0-0-0-0-|-0-0-0-0-0-0-0-0-|-0-0-0-0-0-0-0-0-|-0-0-0-0-0-0-0-0-|


[Verse 1]

e|-----------------|-----------------|-----------------|-----------------|
B|-----------------|-----------------|-----------------|-----------------|
G|-9-9-9-9-9-9-9-9-|-9-9-9-9-9-9-9-9-|-9-9-9-9-9-9-9-9-|-9-9-9-9-9-9-9-9-|
D|-9-9-9-9-9-9-9-9-|-9-9-9-9-9-9-9-9-|-9-9-9-9-9-9-9-9-|-9-9-9-9-9-9-9-9-|
A|-7-7-7-7-7-7-7-7-|-7-7-7-7-7-7-7-7-|-7-7-7-7-7-7-7-7-|-7-7-7-7-7-7-7-7-|
E|-----------------|-----------------|-----------------|-----------------|

e|-----------------|-----------------|-----------------|-----------------|
B|-----------------|-----------------|-----------------|-----------------|
G|-----------------|-7-7-7-7---------|-----------------|-7-7-7-7---------|
D|-7-7-7-7-7-7-7-7-|-7-7-7-7-7-7-7-7-|-7-7-7-7-7-7-7-7-|-5-5-5-5-7-7-7-7-|
A|-7-7-7-7-7-7-7-7-|-5-5-5-5-7-7-7-7-|-7-7-7-7-7-7-7-7-|-5-5-5-5-7-7-7-7-|
E|-5-5-5-5-5-5-5-5-|---------5-5-5-5-|-5-5-5-5-5-5-5-5-|---------5-5-5-5-|(All x2)


[Chorus 1]

e|-----------------|-----------------|-----------------|-----------------|
B|-----------------|-----------------|-----------------|-----------------|
G|-----------------|-----------------|-----------------|-----------------|
D|-9-9-9-9-9-9-9-9-|-9-9-9-9-9-9-9-8-|-7-7-7-7-7-7-7-7-|-7-7-7-7-7-7-7-8-|
A|-9-9-9-9-9-9-9-9-|-9-9-9-9-9-9-9-8-|-7-7-7-7-7-7-7-7-|-7-7-7-7-7-7-7-8-|
E|-7-7-7-7-7-7-7-7-|-7-7-7-7-7-7-7-6-|-5-5-5-5-5-5-5-5-|-5-5-5-5-5-5-5-6-|

e|-----------------|-----------------|-----------------|-----------------|
B|-----------------|-----------------|-----------------|-----------------|
G|-----------------|-----------------|-----------------|-----------------|
D|-9-9-9-9-9-9-9-9-|-9-9-9-9-9-9-9-8-|-7-7-7-7-7-7-7-7-|-5-5-5-5-5-5-5-5-|
A|-9-9-9-9-9-9-9-9-|-9-9-9-9-9-9-9-8-|-7-7-7-7-7-7-7-7-|-5-5-5-5-5-5-5-5-|
E|-7-7-7-7-7-7-7-7-|-7-7-7-7-7-7-7-6-|-5-5-5-5-5-5-5-5-|-3-3-3-3-3-3-3-3-|


[Verse 2]

e|-----------------|-----------------|-----------------|-----------------|
B|-----------------|-----------------|-----------------|-----------------|
G|-9-9-9-9-9-9-9-9-|-9-9-9-9-9-9-9-9-|-9-9-9-9-9-9-9-9-|-9-9-9-9-9-9-9-9-|
D|-9-9-9-9-9-9-9-9-|-9-9-9-9-9-9-9-9-|-9-9-9-9-9-9-9-9-|-9-9-9-9-9-9-9-9-|
A|-7-7-7-7-7-7-7-7-|-7-7-7-7-7-7-7-7-|-7-7-7-7-7-7-7-7-|-7-7-7-7-7-7-7-7-|
E|-----------------|-----------------|-----------------|-----------------|

e|-----------------|-----------------|-----------------|-----------------|
B|-----------------|-----------------|-----------------|-----------------|
G|-----------------|-7-7-7-7---------|-----------------|-7-7-7-7---------|
D|-7-7-7-7-7-7-7-7-|-7-7-7-7-7-7-7-7-|-7-7-7-7-7-7-7-7-|-5-5-5-5-7-7-7-7-|
A|-7-7-7-7-7-7-7-7-|-5-5-5-5-7-7-7-7-|-7-7-7-7-7-7-7-7-|-5-5-5-5-7-7-7-7-|
E|-5-5-5-5-5-5-5-5-|---------5-5-5-5-|-5-5-5-5-5-5-5-5-|---------5-5-5-5-|(All x2)


[Chorus 2]

e|-----------------|-----------------|-----------------|-----------------|
B|-----------------|-----------------|-----------------|-----------------|
G|-----------------|-----------------|-----------------|-----------------|
D|-9-9-9-9-9-9-9-9-|-9-9-9-9-9-9-9-8-|-7-7-7-7-7-7-7-7-|-7-7-7-7-7-7-7-8-|
A|-9-9-9-9-9-9-9-9-|-9-9-9-9-9-9-9-8-|-7-7-7-7-7-7-7-7-|-7-7-7-7-7-7-7-8-|
E|-7-7-7-7-7-7-7-7-|-7-7-7-7-7-7-7-6-|-5-5-5-5-5-5-5-5-|-5-5-5-5-5-5-5-6-|

e|-----------------|-----------------|-----------------|-----------------|
B|-----------------|-----------------|-----------------|-----------------|
G|-----------------|-----------------|-----------------|-----------------|
D|-9-9-9-9-9-9-9-9-|-9-9-9-9-9-9-9-8-|-7-7-7-7-7-7-7-7-|-5-5-5-5-5-5-5-5-|
A|-9-9-9-9-9-9-9-9-|-9-9-9-9-9-9-9-8-|-7-7-7-7-7-7-7-7-|-5-5-5-5-5-5-5-5-|
E|-7-7-7-7-7-7-7-7-|-7-7-7-7-7-7-7-6-|-5-5-5-5-5-5-5-5-|-3-3-3-3-3-3-3-3-|


[Solo]

e|-----------------|-----------------|-----------------|-----------------|
B|-----------------|-----------------|-----------------|-----------------|
G|-9-9---6---6-9-9-|-----------------|-9-9---6---6-9-9-|-----------------|
D|---------9-------|-----------------|---------9-------|-----------------|
A|-----------------|-----------------|-----------------|-----------------|
E|-----------------|-----------------|-----------------|-----------------|

e|-----------------|-----------------|-----------------|-----------------|
B|-----------------|-----------------|-----------------|-----------------|
G|-6-6-6-6-6-6-6-6-|-7-7-6-----------|-6-6-6-6-6-6-6-6-|-7-7-6-4-6-4-----|
D|-----------------|-----------------|-----------------|-----------------|
A|-----------------|-----------------|-----------------|-----------------|
E|-----------------|-----------------|-----------------|-----------------|

e|-----------------|-----------------|-----------------|-----------------|
B|---------7-9-7---|-----------------|---------7-9-7---|-----------------|
G|-9-9---6-------9-|-----------------|-9-9---6-------9-|-----------------|
D|-----------------|-----------------|-----------------|-----------------|
A|-----------------|-----------------|-----------------|-----------------|
E|-----------------|-----------------|-----------------|-----------------|

e|-----------------|-----------------|-----------------|-----------------|
B|-----------------|-----------------|-----------------|-----------------|
G|-6-6-6-6-6-6-6-6-|-7-7-6-----------|-6-6-6-6-6-6-6-6-|-7-7-6-----------|
D|-----------------|-----------------|-----------------|-----------------|
A|-----------------|-----------------|-----------------|-----------------|
E|-----------------|-----------------|-----------------|-----------------|


[Chorus 3]

e|-----------------|-----------------|-----------------|-----------------|
B|-----------------|-----------------|-----------------|-----------------|
G|-----------------|-----------------|-----------------|-----------------|
D|-9-9-9-9-9-9-9-9-|-9-9-9-9-9-9-9-8-|-7-7-7-7-7-7-7-7-|-7-7-7-7-7-7-7-8-|
A|-9-9-9-9-9-9-9-9-|-9-9-9-9-9-9-9-8-|-7-7-7-7-7-7-7-7-|-7-7-7-7-7-7-7-8-|
E|-7-7-7-7-7-7-7-7-|-7-7-7-7-7-7-7-6-|-5-5-5-5-5-5-5-5-|-5-5-5-5-5-5-5-6-|

e|-----------------|-----------------|-----------------|-----------------|
B|-----------------|-----------------|-----------------|-----------------|
G|-----------------|-----------------|-----------------|-----------------|
D|-9-9-9-9-9-9-9-9-|-9-9-9-9-9-9-9-8-|-7-7-7-7-7-7-7-7-|-5-5-5-5-5-5-5-5-|
A|-9-9-9-9-9-9-9-9-|-9-9-9-9-9-9-9-8-|-7-7-7-7-7-7-7-7-|-5-5-5-5-5-5-5-5-|
E|-7-7-7-7-7-7-7-7-|-7-7-7-7-7-7-7-6-|-5-5-5-5-5-5-5-5-|-3-3-3-3-3-3-3-3-|(All x2)


[Outro]

e|---|
B|---|
G|-1-|
D|-2-|
A|-2-|
E|-0-|
Suggest correction
Give kudos to tab author, rate the tab!
1 2 3 4 5
comments
print report bad tab
guest
You may want to rate the tab now too:
select rating
Wanna post a correction for this tab? Suggest correction