Oops, an error
Loading. Please wait.

Operation 2 Tab

4 views 1 this week
no commentswrite comment
1 2 3 4 5
3 more votes to show rating
add to favorites
launch autoscroll
font size
0
reset
how to read this tab
guitar tuner
Autoscroll
slow
fast
+/-
esc
set tempo
stop
Help us to improve Ultimate-Guitar.com Take our survey!
×
Author
Difficulty
novice
Operation #2
Dog Party
Vol. 4 (2015)

Standard Tuning


[Verse 1]

e|-----------------|-----------------|
B|-----------------|-----------------|
G|-8-8-8-8-8-8-8-8-|---------7-7-7-7-|
D|-8-8-8-8-8-8-8-8-|-7-7-7-7-7-7-7-7-|
A|-6-6-6-6-6-6-6-6-|-7-7-7-7-5-5-5-5-|
E|-----------------|-5-5-5-5---------|(x4)


[Chorus 1]

e|-----------------|-----------------|
B|-----------------|-----------------|
G|-5-5-5-5-4-4-4-4-|-3-3-3-3-3-3-3-3-|
D|-5-5-5-5-4-4-4-4-|-3-3-3-3-3-3-3-3-|
A|-3-3-3-3-2-2-2-2-|-1-1-1-1-1-1-1-1-|
E|-----------------|-----------------|(x4)


[Verse 2]

e|-----------------|-----------------|
B|-----------------|-----------------|
G|-8-8-8-8-8-8-8-8-|---------7-7-7-7-|
D|-8-8-8-8-8-8-8-8-|-7-7-7-7-7-7-7-7-|
A|-6-6-6-6-6-6-6-6-|-7-7-7-7-5-5-5-5-|
E|-----------------|-5-5-5-5---------|(x4)


[Chorus 2]

e|-----------------|-----------------|
B|-----------------|-----------------|
G|-5-5-5-5-4-4-4-4-|-3-3-3-3-3-3-3-3-|
D|-5-5-5-5-4-4-4-4-|-3-3-3-3-3-3-3-3-|
A|-3-3-3-3-2-2-2-2-|-1-1-1-1-1-1-1-1-|
E|-----------------|-----------------|(x4)


[Verse 3]

e|-----------------|-----------------|
B|-----------------|-----------------|
G|-8-8-8-8-8-8-8-8-|---------7-7-7-7-|
D|-8-8-8-8-8-8-8-8-|-7-7-7-7-7-7-7-7-|
A|-6-6-6-6-6-6-6-6-|-7-7-7-7-5-5-5-5-|
E|-----------------|-5-5-5-5---------|(x4)


[Chorus 3]

e|-----------------|-----------------|
B|-----------------|-----------------|
G|-5-5-5-5-4-4-4-4-|-3-3-3-3-3-3-3-3-|
D|-5-5-5-5-4-4-4-4-|-3-3-3-3-3-3-3-3-|
A|-3-3-3-3-2-2-2-2-|-1-1-1-1-1-1-1-1-|
E|-----------------|-----------------|(x4)

[Verse 4]

e|-----------------|-----------------|
B|-----------------|-----------------|
G|-8-8-8-8-8-8-8-8-|---------7-7-7-7-|
D|-8-8-8-8-8-8-8-8-|-7-7-7-7-7-7-7-7-|
A|-6-6-6-6-6-6-6-6-|-7-7-7-7-5-5-5-5-|
E|-----------------|-5-5-5-5---------|(x4)


[Chorus 4]

e|-----------------|-----------------|
B|-----------------|-----------------|
G|-5-5-5-5-4-4-4-4-|-3-3-3-3-3-3-3-3-|
D|-5-5-5-5-4-4-4-4-|-3-3-3-3-3-3-3-3-|
A|-3-3-3-3-2-2-2-2-|-1-1-1-1-1-1-1-1-|
E|-----------------|-----------------|(x4)


[Outro]

e|-----------------|-----------------|-----------------|-----------------|
B|-----------------|-----------------|-----------------|-----------------|
G|-8---x-x-x-x-x---|-8---x-x-x-x-x---|-8---x-x-8---x-x-|-8---------------|
D|-8---x-x-x-x-x---|-8---x-x-x-x-x---|-8---x-x-8---x-x-|-8---------------|
A|-6---x-x-x-x-x---|-6---x-x-x-x-x---|-6---x-x-6---x-x-|-6---------------|
E|-----------------|-----------------|-----------------|-----------------|


***********************************
| x   Deadnote
***********************************
Suggest correction
Give kudos to tab author, rate the tab!
1 2 3 4 5
comments
print report bad tab
guest
You may want to rate the tab now too:
select rating
Wanna post a correction for this tab? Suggest correction