Oops, an error
Loading. Please wait.

Peanut Butter Dream Tab

22 views 3 this week
no commentswrite comment
1 2 3 4 5
3 more votes to show rating
add to favorites
launch autoscroll
font size
0
reset
how to read this tab
guitar tuner
Autoscroll
slow
fast
+/-
esc
set tempo
stop
Help us to improve Ultimate-Guitar.com Take our survey!
×
Author
Difficulty
novice
Peanut Butter Dream     
Dog Party
Vol. 4 (2015)

Standard Tuning


[Intro]

e|-----------------|-----------------|
B|-----------------|-----------------|
G|-----------------|---------7-x-5-x-|
D|-5-5-5-5-5-5-5-5-|-3-3-3-3-7-x-5-x-|
A|-5-5-5-5-5-5-5-5-|-3-3-3-3-5-x-3-x-|
E|-3-3-3-3-3-3-3-3-|-1-1-1-1---------|(x4)


[Verse 1]

e|-----------------|-----------------|
B|-----------------|-----------------|
G|-----------------|---------7-x-5-x-|
D|-5-5-5-5-5-5-5-5-|-3-3-3-3-7-x-5-x-|
A|-5-5-5-5-5-5-5-5-|-3-3-3-3-5-x-3-x-|
E|-3-3-3-3-3-3-3-3-|-1-1-1-1---------|(x4)


[Chorus 1]

e|-----------------|-----------------|
B|-----------------|-----------------|
G|-7-7-7-7-5-5-5-5-|-7-7-7-7-5-3-3-3-|
D|-7-7-7-7-5-5-5-5-|-7-7-7-7-5-3-3-3-|
A|-5-5-5-5-3-3-3-3-|-5-5-5-5-3-1-1-1-|
E|-----------------|-----------------|(x2)


[Verse 2]

e|-----------------|-----------------|
B|-----------------|-----------------|
G|-----------------|---------7-x-5-x-|
D|-5-5-5-5-5-5-5-5-|-3-3-3-3-7-x-5-x-|
A|-5-5-5-5-5-5-5-5-|-3-3-3-3-5-x-3-x-|
E|-3-3-3-3-3-3-3-3-|-1-1-1-1---------|(x4)


[Chorus 2]

e|-----------------|-----------------|
B|-----------------|-----------------|
G|-7-7-7-7-5-5-5-5-|-7-7-7-7-5-3-3-3-|
D|-7-7-7-7-5-5-5-5-|-7-7-7-7-5-3-3-3-|
A|-5-5-5-5-3-3-3-3-|-5-5-5-5-3-1-1-1-|
E|-----------------|-----------------|(x2)


[Post-Chorus]

e|-----------------|-----------------|
B|-----------------|-----------------|
G|-----------------|---------7-x-5-x-|
D|-5-5-5-5-5-5-5-5-|-3-3-3-3-7-x-5-x-|
A|-5-5-5-5-5-5-5-5-|-3-3-3-3-5-x-3-x-|
E|-3-3-3-3-3-3-3-3-|-1-1-1-1---------|(x4)


[Verse 3]

e|-----------------|-----------------|
B|-----------------|-----------------|
G|-----------------|---------7-x-5-x-|
D|-5-5-5-5-5-5-5-5-|-3-3-3-3-7-x-5-x-|
A|-5-5-5-5-5-5-5-5-|-3-3-3-3-5-x-3-x-|
E|-3-3-3-3-3-3-3-3-|-1-1-1-1---------|(x4)


[Chorus 3]

e|-----------------|-----------------|
B|-----------------|-----------------|
G|-7-7-7-7-5-5-5-5-|-7-7-7-7-5-3-3-3-|
D|-7-7-7-7-5-5-5-5-|-7-7-7-7-5-3-3-3-|
A|-5-5-5-5-3-3-3-3-|-5-5-5-5-3-1-1-1-|
E|-----------------|-----------------|(x2)


[Verse 4]

e|-----------------|-----------------|
B|-----------------|-----------------|
G|-----------------|---------7-x-5-x-|
D|-5-5-5-5-5-5-5-5-|-3-3-3-3-7-x-5-x-|
A|-5-5-5-5-5-5-5-5-|-3-3-3-3-5-x-3-x-|
E|-3-3-3-3-3-3-3-3-|-1-1-1-1---------|(x4)


[Chorus 4]

e|-----------------|-----------------|
B|-----------------|-----------------|
G|-7-7-7-7-5-5-5-5-|-7-7-7-7-5-3-3-3-|
D|-7-7-7-7-5-5-5-5-|-7-7-7-7-5-3-3-3-|
A|-5-5-5-5-3-3-3-3-|-5-5-5-5-3-1-1-1-|
E|-----------------|-----------------|(x2)


[Bridge]

e|-----------------|-----------------|
B|-----------------|-----------------|
G|-----------------|---------7-x-5-x-|
D|-5-5-5-5-5-5-5-5-|-3-3-3-3-7-x-5-x-|
A|-5-5-5-5-5-5-5-5-|-3-3-3-3-5-x-3-x-|
E|-3-3-3-3-3-3-3-3-|-1-1-1-1---------|(x4)

There is a lead part here, but it has a lot of effects and I haven't figured it out yet.


[Chorus 5]

e|-----------------|-----------------|
B|-----------------|-----------------|
G|-7-7-7-7-5-5-5-5-|-7-7-7-7-5-3-3-3-|
D|-7-7-7-7-5-5-5-5-|-7-7-7-7-5-3-3-3-|
A|-5-5-5-5-3-3-3-3-|-5-5-5-5-3-1-1-1-|
E|-----------------|-----------------|(x4)

Also some sort of lead here. Let me know if you can figure it out. 


[Outro]

e|---|
B|---|
G|---|
D|-5-|
A|-5-|
E|-3-|


***********************************
| x   Deadnote
***********************************
Suggest correction
Give kudos to tab author, rate the tab!
1 2 3 4 5
comments
print report bad tab
guest
You may want to rate the tab now too:
select rating
Wanna post a correction for this tab? Suggest correction