Oops, an error
Loading. Please wait.

Round N Round Tab

16 views 1 this week
no commentswrite comment
1 2 3 4 5
3 more votes to show rating
add to favorites
launch autoscroll
font size
0
reset
how to read this tab
guitar tuner
Autoscroll
slow
fast
+/-
esc
set tempo
stop
Help us to improve Ultimate-Guitar.com Take our survey!
×
Author
Difficulty
novice
Round 'N' Round
Dog Party
'Til You're Mine (2016)

Standard Tuning


[Verse 1]

e|-----------------|-----------------|-----------------|-----------------|
B|-----------------|-----------------|-----------------|-----------------|
G|-9-9-9-9-9-9-9-9-|-6-6-6-6-6-6-6-6-|-----------------|-----------------| 
D|-9-9-9-9-9-9-9-9-|-6-6-6-6-6-6-6-6-|-7-7-7-7-7-7-7-7-|-9-9-9-9-9-9-9-9-|
A|-7-7-7-7-7-7-7-7-|-4-4-4-4-4-4-4-4-|-7-7-7-7-7-7-7-7-|-9-9-9-9-9-9-9-9-|
E|-----------------|-----------------|-5-5-5-5-5-5-5-5-|-7-7-7-7-7-7-7-7-|(x2)


[Chorus]

e|-----------------|-----------------|
B|-----------------|-----------------|
G|-----------------|-----------------| 
D|-7-7-7-7-7-7-7-7-|-9-9-9-9-9-9-9-9-|
A|-7-7-7-7-7-7-7-7-|-9-9-9-9-9-9-9-9-|
E|-5-5-5-5-5-5-5-5-|-7-7-7-7-7-7-7-7-|(x2)

e|-----------------|-----------------|
B|-----------------|-----------------|
G|-9-9-9-9-9-9-9-9-|-6-6-6-6-6-6-6-6-| 
D|-9-9-9-9-9-9-9-9-|-6-6-6-6-6-6-6-6-|
A|-7-7-7-7-7-7-7-7-|-4-4-4-4-4-4-4-4-|
E|-----------------|-----------------|(x3)

e|-----------------|-----------------|
B|-----------------|-----------------|
G|-----------------|-----------------| 
D|-7-7-7-7-7-7-7-7-|-9-9-9-9-9-9-9-9-|
A|-7-7-7-7-7-7-7-7-|-9-9-9-9-9-9-9-9-|
E|-5-5-5-5-5-5-5-5-|-7-7-7-7-7-7-7-7-|


[Verse 2]

e|-----------------|-----------------|-----------------|-----------------|
B|-----------------|-----------------|-----------------|-----------------|
G|-9-9-9-9-9-9-9-9-|-6-6-6-6-6-6-6-6-|-----------------|-----------------| 
D|-9-9-9-9-9-9-9-9-|-6-6-6-6-6-6-6-6-|-7-7-7-7-7-7-7-7-|-9-9-9-9-9-9-9-9-|
A|-7-7-7-7-7-7-7-7-|-4-4-4-4-4-4-4-4-|-7-7-7-7-7-7-7-7-|-9-9-9-9-9-9-9-9-|
E|-----------------|-----------------|-5-5-5-5-5-5-5-5-|-7-7-7-7-7-7-7-7-|(x2)


[Chorus]

e|-----------------|-----------------|
B|-----------------|-----------------|
G|-----------------|-----------------|
D|-7-7-7-7-7-7-7-7-|-9-9-9-9-9-9-9-9-|
A|-7-7-7-7-7-7-7-7-|-9-9-9-9-9-9-9-9-|
E|-5-5-5-5-5-5-5-5-|-7-7-7-7-7-7-7-7-|(x2)

e|-----------------|-----------------|
B|-----------------|-----------------|
G|-9-9-9-9-9-9-9-9-|-6-6-6-6-6-6-6-6-| 
D|-9-9-9-9-9-9-9-9-|-6-6-6-6-6-6-6-6-|
A|-7-7-7-7-7-7-7-7-|-4-4-4-4-4-4-4-4-|
E|-----------------|-----------------|(x3)

e|-----------------|-----------------|
B|-----------------|-----------------|
G|-----------------|-----------------| 
D|-7-7-7-7-7-7-7-7-|-9-9-9-9-9-9-9-9-|
A|-7-7-7-7-7-7-7-7-|-9-9-9-9-9-9-9-9-|
E|-5-5-5-5-5-5-5-5-|-7-7-7-7-7-7-7-7-|


[Bridge]

e|-----------------|-----------------|-----------------|-----------------|
B|-----------------|-----------------|-----------------|-----------------|
G|-----------------|-----------------|-9-9-9-9-9-9-9-9-|-9-9-9-9-9-9-9-8-| 
D|-7-x-7-x-7-x-7-x-|-9-x-9-x-9-x-9-x-|-9-9-9-9-9-9-9-9-|-9-9-9-9-9-9-9-8-| 
A|-7-x-7-x-7-x-7-x-|-9-x-9-x-9-x-9-x-|-7-7-7-7-7-7-7-7-|-7-7-7-7-7-7-7-6-|
E|-5-x-5-x-5-x-5-x-|-7-x-7-x-7-x-7-x-|-----------------|-----------------|

e|-----------------|-----------------|
B|-----------------|-----------------|
G|-----------------|-----------------| 
D|-7-7-7-7-7-7-7-7-|-9-x-x-x-x-x-x-x-|
A|-7-7-7-7-7-7-7-7-|-9-x-x-x-x-x-x-x-|
E|-5-5-5-5-5-5-5-5-|-7-x-x-x-x-x-x-x-|

e|-----------------|-----------------|-----------------|-----------------|
B|-----------------|-----------------|-----------------|-----------------|
G|-9-9-9-9-9-9-9-9-|-9-9-9-9-9-9-9-9-|-9-9-9-9-9-9-9-9-|-9-9-9-9-9-9-9-8-| 
D|-9-9-9-9-9-9-9-9-|-9-9-9-9-9-9-9-9-|-9-9-9-9-9-9-9-9-|-9-9-9-9-9-9-9-8-| 
A|-7-7-7-7-7-7-7-7-|-7-7-7-7-7-7-7-7-|-7-7-7-7-7-7-7-7-|-7-7-7-7-7-7-7-6-|
E|-----------------|-----------------|-----------------|-----------------|


[Final Chorus]

e|-----------------|-----------------|
B|-----------------|-----------------|
G|-----------------|-----------------| 
D|-7-7-7-7-7-7-7-7-|-9-9-9-9-9-9-9-9-|
A|-7-7-7-7-7-7-7-7-|-9-9-9-9-9-9-9-9-|
E|-5-5-5-5-5-5-5-5-|-7-7-7-7-7-7-7-7-|(x2)

e|-----------------|-----------------|
B|-----------------|-----------------|
G|-9-9-9-9-9-9-9-9-|-6-6-6-6-6-6-6-6-| 
D|-9-9-9-9-9-9-9-9-|-6-6-6-6-6-6-6-6-|
A|-7-7-7-7-7-7-7-7-|-4-4-4-4-4-4-4-4-|
E|-----------------|-----------------|(x4)


[Outro]

e|---|
B|---|
G|-9-|
D|-9-|
A|-7-|
E|---|


************************************

| x  Dead note

************************************
Suggest correction
Give kudos to tab author, rate the tab!
1 2 3 4 5
comments
print report bad tab
guest
You may want to rate the tab now too:
select rating
Wanna post a correction for this tab? Suggest correction