Oops, an error
Loading. Please wait.

Song 362 Tab

4 views 1 this week
no commentswrite comment
1 2 3 4 5
3 more votes to show rating
add to favorites
launch autoscroll
font size
0
reset
how to read this tab
guitar tuner
Autoscroll
slow
fast
+/-
esc
set tempo
stop
Help us to improve Ultimate-Guitar.com Take our survey!
×
Author
Difficulty
novice
Song 362        
Dog Party
Vol. 4 (2015)

Standard Tuning


[Intro]

e|-----------------|-----------------|-----------------|-----------------|
B|-----------------|-----------------|-----------------|-----------------|
G|-----------------|-----------------|-----------------|-----------------|
D|-7---7-7---7-7-7-|-7---7-7---7-7-7-|-6---6-6---6-6-6-|-6---6-6---6-6-6-|
A|-7---7-7---7-7-7-|-7---7-7---7-7-7-|-6---6-6---6-6-6-|-6---6-6---6-6-6-|
E|-5---5-5---5-5-5-|-5---5-5---5-5-5-|-4---4-4---4-4-4-|-4---4-4---4-4-4-|(x2)


[Verse 1]

e|-----------------|-----------------|
B|-----------------|-----------------|
G|-----------------|-----------------|
D|-2---2-2---2-2-2-|-6---6-6---6-6-6-|
A|-2---2-2---2-2-2-|-6---6-6---6-6-6-|
E|-0---0-0---0-0-0-|-4---4-4---4-4-4-|(x4)


[Chorus 1]

e|-------------------------|-----------------|-----------------|-----------------|
B|-------------------------|-----------------|-----------------|-----------------|
G|-11----11-11----11-11-11-|-9---9-9---9-9-9-|-7---7-7---7-7-7-|-----------------|
D|-11----11-11----11-11-11-|-9---9-9---9-9-9-|-7---7-7---7-7-7-|-7---7-7---7-7-7-|
A|-9-----9--9-----9--9--9--|-7---7-7---7-7-7-|-5---5-5---5-5-5-|-7---7-7---7-7-7-|
E|-------------------------|-----------------|-----------------|-5---5-5---5-5-5-|(x2)

e|-----------------|-----------------|-----------------|-----------------|
B|-----------------|-----------------|-----------------|-----------------|
G|-----------------|-----------------|-----------------|-----------------|
D|-6---6-6---6-6-6-|-7---7-7---7-7-7-|-6---6-6---6-6-6-|-7---7-7---7-7-7-|
A|-6---6-6---6-6-6-|-7---7-7---7-7-7-|-6---6-6---6-6-6-|-7---7-7---7-7-7-|
E|-4---4-4---4-4-4-|-5---5-5---5-5-5-|-4---4-4---4-4-4-|-5---5-5---5-5-5-|

e|-----------------|
B|-----------------|
G|-----------------|
D|-6---6-6---6-6-6-|
A|-6---6-6---6-6-6-|
E|-4---4-4---4-4-4-|


[Verse 2]

e|-----------------|-----------------|
B|-----------------|-----------------|
G|-----------------|-----------------|
D|-2---2-2---2-2-2-|-6---6-6---6-6-6-|
A|-2---2-2---2-2-2-|-6---6-6---6-6-6-|
E|-0---0-0---0-0-0-|-4---4-4---4-4-4-|(x4)


[Chorus 2]

e|-------------------------|-----------------|-----------------|-----------------|
B|-------------------------|-----------------|-----------------|-----------------|
G|-11----11-11----11-11-11-|-9---9-9---9-9-9-|-7---7-7---7-7-7-|-----------------|
D|-11----11-11----11-11-11-|-9---9-9---9-9-9-|-7---7-7---7-7-7-|-7---7-7---7-7-7-|
A|-9-----9--9-----9--9--9--|-7---7-7---7-7-7-|-5---5-5---5-5-5-|-7---7-7---7-7-7-|
E|-------------------------|-----------------|-----------------|-5---5-5---5-5-5-|(x2)

e|-----------------|-----------------|-----------------|-----------------|
B|-----------------|-----------------|-----------------|-----------------|
G|-----------------|-----------------|-----------------|-----------------|
D|-6---6-6---6-6-6-|-7---7-7---7-7-7-|-6---6-6---6-6-6-|-7---7-7---7-7-7-|
A|-6---6-6---6-6-6-|-7---7-7---7-7-7-|-6---6-6---6-6-6-|-7---7-7---7-7-7-|
E|-4---4-4---4-4-4-|-5---5-5---5-5-5-|-4---4-4---4-4-4-|-5---5-5---5-5-5-|

e|-----------------|
B|-----------------|
G|-----------------|
D|-6---6-6---6-6-6-|
A|-6---6-6---6-6-6-|
E|-4---4-4---4-4-4-|


[Verse 3]

e|-----------------|-----------------|
B|-----------------|-----------------|
G|-----------------|-----------------|
D|-2---2-2---2-2-2-|-6---6-6---6-6-6-|
A|-2---2-2---2-2-2-|-6---6-6---6-6-6-|
E|-0---0-0---0-0-0-|-4---4-4---4-4-4-|(x4)


[Chorus 3]

e|-------------------------|-----------------|-----------------|-----------------|
B|-------------------------|-----------------|-----------------|-----------------|
G|-11----11-11----11-11-11-|-9---9-9---9-9-9-|-7---7-7---7-7-7-|-----------------|
D|-11----11-11----11-11-11-|-9---9-9---9-9-9-|-7---7-7---7-7-7-|-7---7-7---7-7-7-|
A|-9-----9--9-----9--9--9--|-7---7-7---7-7-7-|-5---5-5---5-5-5-|-7---7-7---7-7-7-|
E|-------------------------|-----------------|-----------------|-5---5-5---5-5-5-|(x2)

e|-----------------|-----------------|-----------------|-----------------|
B|-----------------|-----------------|-----------------|-----------------|
G|-----------------|-----------------|-----------------|-----------------|
D|-6---6-6---6-6-6-|-7---7-7---7-7-7-|-6---6-6---6-6-6-|-7---7-7---7-7-7-|
A|-6---6-6---6-6-6-|-7---7-7---7-7-7-|-6---6-6---6-6-6-|-7---7-7---7-7-7-|
E|-4---4-4---4-4-4-|-5---5-5---5-5-5-|-4---4-4---4-4-4-|-5---5-5---5-5-5-|


[Outro]


e|-----------------|-----------------|-----------------|-----------------|
B|-----------------|-----------------|-----------------|-----------------|
G|-----------------|-----------------|-----------------|-----------------|
D|-6---6-6---6-6-6-|-7---7-7---7-7-7-|-6---6-6---6-6-6-|-7---------------|
A|-6---6-6---6-6-6-|-7---7-7---7-7-7-|-6---6-6---6-6-6-|-7---------------|
E|-4---4-4---4-4-4-|-5---5-5---5-5-5-|-4---4-4---4-4-4-|-5---------------|



Suggest correction
Give kudos to tab author, rate the tab!
1 2 3 4 5
comments
print report bad tab
guest
You may want to rate the tab now too:
select rating
Wanna post a correction for this tab? Suggest correction