Oops, an error
Loading. Please wait.

Space Invader Tab

1 view 1 this week
no commentswrite comment
1 2 3 4 5
3 more votes to show rating
add to favorites
launch autoscroll
font size
0
reset
how to read this tab
guitar tuner
Autoscroll
slow
fast
+/-
esc
set tempo
stop
Help us to improve Ultimate-Guitar.com Take our survey!
×
Author
Difficulty
novice
Space Invader
Dog Party
Vol. 4 (2015)

Standard Tuning


[Intro]

e|-----------------|-----------------|
B|-----------------|-----------------|
G|-7-------7-------|-7---7---7---7---|
D|-7-------7-------|-7---7---7---7---|
A|-5-------5-------|-5---5---5---5---|
E|-----------------|-----------------|

e|-----------------|-----------------|-----------------|-----------------|
B|-----------------|-----------------|-----------------|-----------------|
G|-4---4-4---4-4-4-|-4---4-4---4-4-4-|-7---7-7---7-7-7-|-7-7-6-6-7-7-6-6-|
D|-4---4-4---4-4-4-|-4---4-4---4-4-4-|-7---7-7---7-7-7-|-7-7-6-6-7-7-6-6-|
A|-2---2-2---2-2-2-|-2---2-2---2-2-2-|-5---5-5---5-5-5-|-5-5-4-4-5-5-4-4-|
E|-----------------|-----------------|-----------------|-----------------|(x2)


[Verse 1]

e|-----------------|-----------------|-----------------|-----------------|
B|-----------------|-----------------|-----------------|-----------------|
G|-4---4-4---4-4-4-|-4---4-4---4-4-4-|-7---7-7---7-7-7-|-7-7-6-6-7-7-6-6-|
D|-4---4-4---4-4-4-|-4---4-4---4-4-4-|-7---7-7---7-7-7-|-7-7-6-6-7-7-6-6-|
A|-2---2-2---2-2-2-|-2---2-2---2-2-2-|-5---5-5---5-5-5-|-5-5-4-4-5-5-4-4-|
E|-----------------|-----------------|-----------------|-----------------|(x2)


[Chorus 1]

e|-----------------|-----------------|-----------------|-----------------|
B|-----------------|-----------------|-----------------|-----------------|
G|-5---5-5---5-5-5-|-----------------|-5---5-5---5-5-5-|-7-7-7-7-7-7-7-7-|
D|-5---5-5---5-5-5-|-4---4-4---4-4-4-|-5---5-5---5-5-5-|-7-7-7-7-7-7-7-7-|
A|-3---3-3---3-3-3-|-4---4-4---4-4-4-|-3---3-3---3-3-3-|-5-5-5-5-5-5-5-5-|
E|-----------------|-2---2-2---2-2-2-|-----------------|-----------------|(x2)


[Post-Chorus]

e|-----------------|-----------------|-----------------|-----------------|
B|-----------------|-----------------|-----------------|-----------------|
G|-4---4-4---4-4-4-|-4---4-4---4-4-4-|-7---7-7---7-7-7-|-7-7-6-6-7-7-6-6-|
D|-4---4-4---4-4-4-|-4---4-4---4-4-4-|-7---7-7---7-7-7-|-7-7-6-6-7-7-6-6-|
A|-2---2-2---2-2-2-|-2---2-2---2-2-2-|-5---5-5---5-5-5-|-5-5-4-4-5-5-4-4-|
E|-----------------|-----------------|-----------------|-----------------|(x2)


[Verse 2]

e|-----------------|-----------------|-----------------|-----------------|
B|-----------------|-----------------|-----------------|-----------------|
G|-4---4-4---4-4-4-|-4---4-4---4-4-4-|-7---7-7---7-7-7-|-7-7-6-6-7-7-6-6-|
D|-4---4-4---4-4-4-|-4---4-4---4-4-4-|-7---7-7---7-7-7-|-7-7-6-6-7-7-6-6-|
A|-2---2-2---2-2-2-|-2---2-2---2-2-2-|-5---5-5---5-5-5-|-5-5-4-4-5-5-4-4-|
E|-----------------|-----------------|-----------------|-----------------|(x2)


[Chorus 2]

e|-----------------|-----------------|-----------------|-----------------|
B|-----------------|-----------------|-----------------|-----------------|
G|-5---5-5---5-5-5-|-----------------|-5---5-5---5-5-5-|-7-7-7-7-7-7-7-7-|
D|-5---5-5---5-5-5-|-4---4-4---4-4-4-|-5---5-5---5-5-5-|-7-7-7-7-7-7-7-7-|
A|-3---3-3---3-3-3-|-4---4-4---4-4-4-|-3---3-3---3-3-3-|-5-5-5-5-5-5-5-5-|
E|-----------------|-2---2-2---2-2-2-|-----------------|-----------------|(x2)


[Post-Chorus]

e|-----------------|-----------------|
B|-----------------|-----------------|
G|-7-------7-------|-7---7---7---7---|
D|-7-------7-------|-7---7---7---7---|
A|-5-------5-------|-5---5---5---5---|
E|-----------------|-----------------|

e|-----------------|-----------------|-----------------|-----------------|
B|-----------------|-----------------|-----------------|-----------------|
G|-4---4-4---4-4-4-|-4---4-4---4-4-4-|-7---7-7---7-7-7-|-7-7-6-6-7-7-6-6-|
D|-4---4-4---4-4-4-|-4---4-4---4-4-4-|-7---7-7---7-7-7-|-7-7-6-6-7-7-6-6-|
A|-2---2-2---2-2-2-|-2---2-2---2-2-2-|-5---5-5---5-5-5-|-5-5-4-4-5-5-4-4-|
E|-----------------|-----------------|-----------------|-----------------|(x2)


[Verse 3]

e|-----------------|-----------------|-----------------|-----------------|
B|-----------------|-----------------|-----------------|-----------------|
G|-4---4-4---4-4-4-|-4---4-4---4-4-4-|-7---7-7---7-7-7-|-7-7-6-6-7-7-6-6-|
D|-4---4-4---4-4-4-|-4---4-4---4-4-4-|-7---7-7---7-7-7-|-7-7-6-6-7-7-6-6-|
A|-2---2-2---2-2-2-|-2---2-2---2-2-2-|-5---5-5---5-5-5-|-5-5-4-4-5-5-4-4-|
E|-----------------|-----------------|-----------------|-----------------|(x2)


[Chorus 3]

e|-----------------|-----------------|-----------------|-----------------|
B|-----------------|-----------------|-----------------|-----------------|
G|-5---5-5---5-5-5-|-----------------|-5---5-5---5-5-5-|-7-7-7-7-7-7-7-7-|
D|-5---5-5---5-5-5-|-4---4-4---4-4-4-|-5---5-5---5-5-5-|-7-7-7-7-7-7-7-7-|
A|-3---3-3---3-3-3-|-4---4-4---4-4-4-|-3---3-3---3-3-3-|-5-5-5-5-5-5-5-5-|
E|-----------------|-2---2-2---2-2-2-|-----------------|-----------------|(x2)


[Post-Chorus]

e|-----------------|-----------------|-----------------|-----------------|
B|-----------------|-----------------|-----------------|-----------------|
G|-4---4-4---4-4-4-|-4---4-4---4-4-4-|-7---7-7---7-7-7-|-7-7-6-6-7-7-6-6-|
D|-4---4-4---4-4-4-|-4---4-4---4-4-4-|-7---7-7---7-7-7-|-7-7-6-6-7-7-6-6-|
A|-2---2-2---2-2-2-|-2---2-2---2-2-2-|-5---5-5---5-5-5-|-5-5-4-4-5-5-4-4-|
E|-----------------|-----------------|-----------------|-----------------|(x2)


[Verse 4]

e|-----------------|-----------------|-----------------|-----------------|
B|-----------------|-----------------|-----------------|-----------------|
G|-4---4-4---4-4-4-|-4---4-4---4-4-4-|-7---7-7---7-7-7-|-7-7-6-6-7-7-6-6-|
D|-4---4-4---4-4-4-|-4---4-4---4-4-4-|-7---7-7---7-7-7-|-7-7-6-6-7-7-6-6-|
A|-2---2-2---2-2-2-|-2---2-2---2-2-2-|-5---5-5---5-5-5-|-5-5-4-4-5-5-4-4-|
E|-----------------|-----------------|-----------------|-----------------|(x2)


[Chorus 4]

e|-----------------|-----------------|-----------------|-----------------|
B|-----------------|-----------------|-----------------|-----------------|
G|-5---5-5---5-5-5-|-----------------|-5---5-5---5-5-5-|-7-7-7-7-7-7-7-7-|
D|-5---5-5---5-5-5-|-4---4-4---4-4-4-|-5---5-5---5-5-5-|-7-7-7-7-7-7-7-7-|
A|-3---3-3---3-3-3-|-4---4-4---4-4-4-|-3---3-3---3-3-3-|-5-5-5-5-5-5-5-5-|
E|-----------------|-2---2-2---2-2-2-|-----------------|-----------------|(x2)


[Outro]

e|-----------------|-----------------|-----------------|
B|-----------------|-----------------|-----------------|
G|-7-------7-------|-7---7---7---7---|-4---------------|
D|-7-------7-------|-7---7---7---7---|-4---------------|
A|-5-------5-------|-5---5---5---5---|-2---------------|
E|-----------------|-----------------|-----------------|

Suggest correction
Give kudos to tab author, rate the tab!
1 2 3 4 5
comments
print report bad tab
guest
You may want to rate the tab now too:
select rating
Wanna post a correction for this tab? Suggest correction