Oops, an error
Loading. Please wait.

The Look Tab

13 views 1 this week
no commentswrite comment
1 2 3 4 5
3 more votes to show rating
add to favorites
launch autoscroll
font size
0
reset
how to read this tab
guitar tuner
Autoscroll
slow
fast
+/-
esc
set tempo
stop
Help us to improve Ultimate-Guitar.com Take our survey!
×
Author
The Look
Dog Party
'Til You're Mine (2016)

Standard Tuning


[Intro]

e|-----------------|-----------------|-----------------|-----------------|
B|-----------------|-----------------|-----------------|-----------------|
G|-7-7-7-7-7-7-7-7-|-9-9-9-9-9-9-9-9-|-----------------|-----------------| 
D|-7-7-7-7-7-7-7-7-|-9-9-9-9-9-9-9-9-|-9-9-9-9-9-9-9-9-|-9-9-9-9-9-9-9-9-|
A|-5-5-5-5-5-5-5-5-|-7-7-7-7-7-7-7-7-|-9-9-9-9-9-9-9-9-|-9-9-9-9-9-9-9-9-|
E|-----------------|-----------------|-7-7-7-7-7-7-7-7-|-7-7-7-7-7-7-7-7-|(x2)

e|-----------------|-----------------|
B|-----------------|-----------------|
G|-7-7-7-7---------|-----------------| 
D|-7-7-7-7-7-7-7-7-|-9-9-9-9-9-9-9-9-|
A|-5-5-5-5-7-7-7-7-|-9-9-9-9-9-9-9-9-|
E|---------5-5-5-5-|-7-7-7-7-7-7-7-7-|(x4)


[Verse 1]

e|-----------------|-----------------|
B|-----------------|-----------------|
G|-7-7-7-7---------|-----------------| 
D|-7-7-7-7-7-7-7-7-|-9-9-9-9-9-9-9-9-|
A|-5-5-5-5-7-7-7-7-|-9-9-9-9-9-9-9-9-|
E|---------5-5-5-5-|-7-7-7-7-7-7-7-7-|(x8)


[Pre-Chorus]

e|-----------------|-----------------|-----------------|-----------------|
B|-----------------|-----------------|-----------------|-----------------|
G|-7-7-7-7-7-7-7-7-|-9-9-9-9-9-9-9-9-|-----------------|-----------------| 
D|-7-7-7-7-7-7-7-7-|-9-9-9-9-9-9-9-9-|-9-9-9-9-9-9-9-9-|-9-9-9-9-9-9-9-9-|
A|-5-5-5-5-5-5-5-5-|-7-7-7-7-7-7-7-7-|-9-9-9-9-9-9-9-9-|-9-9-9-9-9-9-9-9-|
E|-----------------|-----------------|-7-7-7-7-7-7-7-7-|-7-7-7-7-7-7-7-7-|(x2)


[Chorus]

e|-----------------|-----------------|-----------------|-----------------|
B|-----------------|-----------------|-----------------|-----------------|
G|-9-9-9-9-9-9-8-7-|-6-6-6-6-6-6-7-8-|-9-9-9-9-9-9-8-7-|-6-6-6-6-6-6-6-6-|
D|-9-9-9-9-9-9-8-7-|-6-6-6-6-6-6-7-8-|-9-9-9-9-9-9-8-7-|-6-6-6-6-6-6-6-6-|
A|-7-7-7-7-7-7-6-5-|-4-4-4-4-4-4-5-6-|-7-7-7-7-7-7-6-5-|-4-4-4-4-4-4-4-4-|
E|-----------------|-----------------|-----------------|-----------------|(x2)
Listen to the song for exact strumming here


[Verse 2]

e|-----------------|-----------------|
B|-----------------|-----------------|
G|-7-7-7-7---------|-----------------| 
D|-7-7-7-7-7-7-7-7-|-9-9-9-9-9-9-9-9-|
A|-5-5-5-5-7-7-7-7-|-9-9-9-9-9-9-9-9-|
E|---------5-5-5-5-|-7-7-7-7-7-7-7-7-|(x8)


[Pre-Chorus]

e|-----------------|-----------------|-----------------|-----------------|
B|-----------------|-----------------|-----------------|-----------------|
G|-7-7-7-7-7-7-7-7-|-9-9-9-9-9-9-9-9-|-----------------|-----------------| 
D|-7-7-7-7-7-7-7-7-|-9-9-9-9-9-9-9-9-|-9-9-9-9-9-9-9-9-|-9-9-9-9-9-9-9-9-|
A|-5-5-5-5-5-5-5-5-|-7-7-7-7-7-7-7-7-|-9-9-9-9-9-9-9-9-|-9-9-9-9-9-9-9-9-|
E|-----------------|-----------------|-7-7-7-7-7-7-7-7-|-7-7-7-7-7-7-7-7-|(x2)


[Chorus]

e|-----------------|-----------------|-----------------|-----------------|
B|-----------------|-----------------|-----------------|-----------------|
G|-9-9-9-9-9-9-8-7-|-6-6-6-6-6-6-7-8-|-9-9-9-9-9-9-8-7-|-6-6-6-6-6-6-6-6-| 
D|-9-9-9-9-9-9-8-7-|-6-6-6-6-6-6-7-8-|-9-9-9-9-9-9-8-7-|-6-6-6-6-6-6-6-6-|
A|-7-7-7-7-7-7-6-5-|-4-4-4-4-4-4-5-6-|-7-7-7-7-7-7-6-5-|-4-4-4-4-4-4-4-4-|
E|-----------------|-----------------|-----------------|-----------------|(x2)


[Bridge]

e|-----------------|-----------------|-----------------|-----------------|
B|-----------------|-----------------|-----------------|-----------------|
G|-7-7-7-7-7-7-7-7-|-9-9-9-9-9-9-9-9-|-----------------|-----------------| 
D|-7-7-7-7-7-7-7-7-|-9-9-9-9-9-9-9-9-|-9-9-9-9-9-9-9-9-|-9-9-9-9-9-9-9-9-|
A|-5-5-5-5-5-5-5-5-|-7-7-7-7-7-7-7-7-|-9-9-9-9-9-9-9-9-|-9-9-9-9-9-9-9-9-|
E|-----------------|-----------------|-7-7-7-7-7-7-7-7-|-7-7-7-7-7-7-7-7-|(x2)

e|-----------------|-----------------|
B|-----------------|-----------------|
G|-7-7-7-7---------|-----------------| 
D|-7-7-7-7-7-7-7-7-|-9-9-9-9-9-9-9-9-|
A|-5-5-5-5-7-7-7-7-|-9-9-9-9-9-9-9-9-|
E|---------5-5-5-5-|-7-7-7-7-7-7-7-7-|(x4)


[Chorus]

e|-----------------|-----------------|-----------------|-----------------|
B|-----------------|-----------------|-----------------|-----------------|
G|-9-9-9-9-9-9-8-7-|-6-6-6-6-6-6-7-8-|-9-9-9-9-9-9-8-7-|-6-6-6-6-6-6-6-6-| 
D|-9-9-9-9-9-9-8-7-|-6-6-6-6-6-6-7-8-|-9-9-9-9-9-9-8-7-|-6-6-6-6-6-6-6-6-|
A|-7-7-7-7-7-7-6-5-|-4-4-4-4-4-4-5-6-|-7-7-7-7-7-7-6-5-|-4-4-4-4-4-4-4-4-|
E|-----------------|-----------------|-----------------|-----------------|(x2)


[Outro]

e|---|
B|---|
G|-9-|
D|-9-|
A|-7-|
E|---|
Suggest correction
Give kudos to tab author, rate the tab!
1 2 3 4 5
comments
print report bad tab
guest
You may want to rate the tab now too:
select rating
Wanna post a correction for this tab? Suggest correction