Oops, an error
Loading. Please wait.

Til Youre Mine Tab

25 views 1 this week
no commentswrite comment
1 2 3 4 5
3 more votes to show rating
add to favorites
launch autoscroll
font size
0
reset
how to read this tab
guitar tuner
Autoscroll
slow
fast
+/-
esc
set tempo
stop
Help us to improve Ultimate-Guitar.com Take our survey!
×
Author
'Til You're Mine
Dog Party
'Til You're Mine (2016)

Standard Tuning


[Verse 1]

e|------------------|-----------------|-----------------|-----------------|
B|------------------|-----------------|-----------------|-----------------|
G|-6/7-7-7--6/7-7-7-|-6/7-7-7-7-7-7-7-|-5-5-5-5-5-5-5-5-|-----------------| 
D|-6/7-7-7--6/7-7-7-|-6/7-7-7-7-7-7-7-|-5-5-5-5-5-5-5-5-|-5-5-5-5-5-5-5-5-|
A|-4/5-5-5--4/5-5-5-|-4/5-5-5-5-5-5-5-|-3-3-3-3-3-3-3-3-|-5-5-5-5-5-5-5-5-|
E|------------------|-----------------|-----------------|-3-3-3-3-3-3-3-3-|(x4)


[Chorus]

e|-----------------|-----------------|-----------------|-----------------|
B|-----------------|-----------------|-----------------|-----------------|
G|-7-7-7-7-7-7-7-7-|-7-7-7-7-7-7-7-7-|-5-5-5-5-5-5-5-5-|-----------------| 
D|-7-7-7-7-7-7-7-7-|-7-7-7-7-7-7-7-7-|-5-5-5-5-5-5-5-5-|-5-5-5-5-5-5-5-5-|
A|-5-5-5-5-5-5-5-5-|-5-5-5-5-5-5-5-5-|-3-3-3-3-3-3-3-3-|-5-5-5-5-5-5-5-5-|
E|-----------------|-----------------|-----------------|-3-3-3-3-3-3-3-3-|(x3)

e|-------------------------|-------------------------|
B|-------------------------|-------------------------|
G|-10-10-10-10-10-10-10-10-|-12----------------------|
D|-10-10-10-10-10-10-10-10-|-12----------------------|
A|-8--8--8--8--8--8--8--8--|-10----------------------|
E|-------------------------|-------------------------|


[Post-Chorus]

e|-----------------|-----------------|-----------------|-----------------|
B|-----------------|-----------------|-----------------|-----------------|
G|-7-7-7-7-7-7-7-7-|-7-7-7-7-7-7-7-7-|-7-7-7-7-7-7-7-7-|-7-7-7-7-7-7-7-7-|
D|-7-7-7-7-7-7-7-7-|-7-7-7-7-7-7-7-7-|-7-7-7-7-7-7-7-7-|-7-7-7-7-7-7-7-7-|
A|-5-5-5-5-5-5-5-5-|-5-5-5-5-5-5-5-5-|-5-5-5-5-5-5-5-5-|-5-5-5-5-5-5-5-5-|
E|-----------------|-----------------|-----------------|-----------------|


[Verse 2]

e|------------------|-----------------|-----------------|-----------------|
B|------------------|-----------------|-----------------|-----------------|
G|-6/7-7-7--6/7-7-7-|-6/7-7-7-7-7-7-7-|-5-5-5-5-5-5-5-5-|-----------------| 
D|-6/7-7-7--6/7-7-7-|-6/7-7-7-7-7-7-7-|-5-5-5-5-5-5-5-5-|-5-5-5-5-5-5-5-5-|
A|-4/5-5-5--4/5-5-5-|-4/5-5-5-5-5-5-5-|-3-3-3-3-3-3-3-3-|-5-5-5-5-5-5-5-5-|
E|------------------|-----------------|-----------------|-3-3-3-3-3-3-3-3-|(x4)


[Chorus]

e|-----------------|-----------------|-----------------|-----------------|
B|-----------------|-----------------|-----------------|-----------------|
G|-7-7-7-7-7-7-7-7-|-7-7-7-7-7-7-7-7-|-5-5-5-5-5-5-5-5-|-----------------| 
D|-7-7-7-7-7-7-7-7-|-7-7-7-7-7-7-7-7-|-5-5-5-5-5-5-5-5-|-5-5-5-5-5-5-5-5-|
A|-5-5-5-5-5-5-5-5-|-5-5-5-5-5-5-5-5-|-3-3-3-3-3-3-3-3-|-5-5-5-5-5-5-5-5-|
E|-----------------|-----------------|-----------------|-3-3-3-3-3-3-3-3-|(x3)

e|-------------------------|-------------------------|
B|-------------------------|-------------------------|
G|-10-10-10-10-10-10-10-10-|-12----------------------|
D|-10-10-10-10-10-10-10-10-|-12----------------------|
A|-8--8--8--8--8--8--8--8--|-10----------------------|
E|-------------------------|-------------------------|


[Post-Chorus]

e|-----------------|-----------------|-----------------|-----------------|
B|-----------------|-----------------|-----------------|-----------------|
G|-7-7-7-7-7-7-7-7-|-7-7-7-7-7-7-7-7-|-7-7-7-7-7-7-7-7-|-7-7-7-7-7-7-7-7-|
D|-7-7-7-7-7-7-7-7-|-7-7-7-7-7-7-7-7-|-7-7-7-7-7-7-7-7-|-7-7-7-7-7-7-7-7-|
A|-5-5-5-5-5-5-5-5-|-5-5-5-5-5-5-5-5-|-5-5-5-5-5-5-5-5-|-5-5-5-5-5-5-5-5-|
E|-----------------|-----------------|-----------------|-----------------|


[Verse 3]

e|------------------|-----------------|-----------------|-----------------|
B|------------------|-----------------|-----------------|-----------------|
G|-6/7-7-7--6/7-7-7-|-6/7-7-7-7-7-7-7-|-5-5-5-5-5-5-5-5-|-----------------| 
D|-6/7-7-7--6/7-7-7-|-6/7-7-7-7-7-7-7-|-5-5-5-5-5-5-5-5-|-5-5-5-5-5-5-5-5-|
A|-4/5-5-5--4/5-5-5-|-4/5-5-5-5-5-5-5-|-3-3-3-3-3-3-3-3-|-5-5-5-5-5-5-5-5-|
E|------------------|-----------------|-----------------|-3-3-3-3-3-3-3-3-|(x4)


[Chorus]

e|-----------------|-----------------|-----------------|-----------------|
B|-----------------|-----------------|-----------------|-----------------|
G|-7-7-7-7-7-7-7-7-|-7-7-7-7-7-7-7-7-|-5-5-5-5-5-5-5-5-|-----------------| 
D|-7-7-7-7-7-7-7-7-|-7-7-7-7-7-7-7-7-|-5-5-5-5-5-5-5-5-|-5-5-5-5-5-5-5-5-|
A|-5-5-5-5-5-5-5-5-|-5-5-5-5-5-5-5-5-|-3-3-3-3-3-3-3-3-|-5-5-5-5-5-5-5-5-|
E|-----------------|-----------------|-----------------|-3-3-3-3-3-3-3-3-|(x3)

e|-------------------------|-------------------------|
B|-------------------------|-------------------------|
G|-10-10-10-10-10-10-10-10-|-12----------------------|
D|-10-10-10-10-10-10-10-10-|-12----------------------|
A|-8--8--8--8--8--8--8--8--|-10----------------------|
E|-------------------------|-------------------------|


[Post-Chorus]

e|-----------------|-----------------|-----------------|-----------------|
B|-----------------|-----------------|-----------------|-----------------|
G|-7-7-7-7-7-7-7-7-|-7-7-7-7-7-7-7-7-|-7-7-7-7-7-7-7-7-|-7-7-7-7-7-7-7-7-| 
D|-7-7-7-7-7-7-7-7-|-7-7-7-7-7-7-7-7-|-7-7-7-7-7-7-7-7-|-7-7-7-7-7-7-7-7-|
A|-5-5-5-5-5-5-5-5-|-5-5-5-5-5-5-5-5-|-5-5-5-5-5-5-5-5-|-5-5-5-5-5-5-5-5-|
E|-----------------|-----------------|-----------------|-----------------|(x2)


[Outro]

e|-----------------|
B|-----------------|
G|-7---------------|
D|-7---------------|
A|-5---------------|
E|-----------------|


************************************

| /  Slide up

************************************
Suggest correction
Give kudos to tab author, rate the tab!
1 2 3 4 5
comments
print report bad tab
guest
You may want to rate the tab now too:
select rating
Wanna post a correction for this tab? Suggest correction