Oops, an error
Loading. Please wait.

What Do I Want Tab

13 views 1 this week
no commentswrite comment
1 2 3 4 5
3 more votes to show rating
add to favorites
launch autoscroll
font size
0
reset
how to read this tab
guitar tuner
Autoscroll
slow
fast
+/-
esc
set tempo
stop
Help us to improve Ultimate-Guitar.com Take our survey!
×
Author
Difficulty
novice
What Do I Want
Dog Party
'Til You're Mine (2016)

Standard Tuning


[Intro]

e|-----------------|-----------------|-----------------|-----------------|
B|-----------------|-----------------|-----------------|-----------------|
G|-----------------|-6---6-6---6-6-6-|-----------------|-----------------|
D|-7---7-7---7-7-7-|-6---6-6---6-6-6-|-4---4-4---4-4-4-|-2---2-2---2-2-2-|
A|-7---7-7---7-7-7-|-4---4-4---4-4-4-|-4---4-4---4-4-4-|-2---2-2---2-2-2-|
E|-5---5-5---5-5-5-|-----------------|-2---2-2---2-2-2-|-0---0-0---0-0-0-|(x2)


[Verse 1]

e|-----------------|-----------------|-----------------|-----------------|
B|-----------------|-----------------|-----------------|-----------------|
G|-----------------|-6---6-6---6-6-6-|-----------------|-----------------|
D|-7---7-7---7-7-7-|-6---6-6---6-6-6-|-4---4-4---4-4-4-|-2---2-2---2-2-2-|
A|-7---7-7---7-7-7-|-4---4-4---4-4-4-|-4---4-4---4-4-4-|-2---2-2---2-2-2-|
E|-5---5-5---5-5-5-|-----------------|-2---2-2---2-2-2-|-0---0-0---0-0-0-|(x2)


[Chorus 1]

e|-----------------|-----------------|-----------------|-----------------|
B|-----------------|-----------------|-----------------|-----------------|
G|-4---4-4---4-4-4-|-----------------|-6---6-6---6-6-6-|-----------------|
D|-4---4-4---4-4-4-|-2---2-2---2-2-2-|-6---6-6---6-6-6-|-4---4-4---4-4-4-|
A|-2---2-2---2-2-2-|-2---2-2---2-2-2-|-4---4-4---4-4-4-|-4---4-4---4-4-4-|
E|-----------------|-0---0-0---0-0-0-|-----------------|-2---2-2---2-2-2-|

e|-----------------|-----------------|-----------------|-----------------|
B|-----------------|-----------------|-----------------|-----------------|
G|-7---7-7---7-7-7-|-----------------|-2---2-2-6---6-6-|-----------------|
D|-7---7-7---7-7-7-|-2---2-2---2-2-2-|-2---2-2-6---6-6-|-4---4-4---4-4-4-|
A|-5---5-5---5-5-5-|-2---2-2---2-2-2-|-0---0-0-6---4-4-|-4---4-4---4-4-4-|
E|-----------------|-0---0-0---0-0-0-|-----------------|-2---2-2---2-2-2-|

e|-----------------|-----------------|
B|-----------------|-----------------|
G|-----------------|-----------------|
D|-2---2-2---2-2-2-|-2---2-2---2-2-2-|
A|-2---2-2---2-2-2-|-2---2-2---2-2-2-|
E|-0---0-0---0-0-0-|-0---0-0---0-0-0-|


[Verse 2]

e|-----------------|-----------------|-----------------|-----------------|
B|-----------------|-----------------|-----------------|-----------------|
G|-----------------|-6---6-6---6-6-6-|-----------------|-----------------|
D|-7---7-7---7-7-7-|-6---6-6---6-6-6-|-4---4-4---4-4-4-|-2---2-2---2-2-2-|
A|-7---7-7---7-7-7-|-4---4-4---4-4-4-|-4---4-4---4-4-4-|-2---2-2---2-2-2-|
E|-5---5-5---5-5-5-|-----------------|-2---2-2---2-2-2-|-0---0-0---0-0-0-|(x2)


[Chorus 2]

e|-----------------|-----------------|-----------------|-----------------|
B|-----------------|-----------------|-----------------|-----------------|
G|-4---4-4---4-4-4-|-----------------|-6---6-6---6-6-6-|-----------------|
D|-4---4-4---4-4-4-|-2---2-2---2-2-2-|-6---6-6---6-6-6-|-4---4-4---4-4-4-|
A|-2---2-2---2-2-2-|-2---2-2---2-2-2-|-4---4-4---4-4-4-|-4---4-4---4-4-4-|
E|-----------------|-0---0-0---0-0-0-|-----------------|-2---2-2---2-2-2-|

e|-----------------|-----------------|-----------------|-----------------|
B|-----------------|-----------------|-----------------|-----------------|
G|-7---7-7---7-7-7-|-----------------|-2---2-2-6---6-6-|-----------------|
D|-7---7-7---7-7-7-|-2---2-2---2-2-2-|-2---2-2-6---6-6-|-4---4-4---4-4-4-|
A|-5---5-5---5-5-5-|-2---2-2---2-2-2-|-0---0-0-6---4-4-|-4---4-4---4-4-4-|
E|-----------------|-0---0-0---0-0-0-|-----------------|-2---2-2---2-2-2-|

e|-----------------|-----------------|-----------------|-----------------|
B|-----------------|-----------------|-----------------|-----------------|
G|-----------------|-----------------|-----------------|-----------------|
D|-2---2-2---2-2-2-|-2---2-2---2-2-2-|-2---2-2---2-2-2-|-2---2-2---2-2-2-|
A|-2---2-2---2-2-2-|-2---2-2---2-2-2-|-2---2-2---2-2-2-|-2---2-2---2-2-2-|
E|-0---0-0---0-0-0-|-0---0-0---0-0-0-|-0---0-0---0-0-0-|-0---0-0---0-0-0-|


[Bridge]

e|-----------------|-----------------|-----------------|-----------------|
B|-----------------|-----------------|-----------------|-----------------|
G|-----------------|-6---6-6---6-6-6-|-----------------|-----------------|
D|-7---7-7---7-7-7-|-6---6-6---6-6-6-|-4---4-4---4-4-4-|-2---2-2---2-2-2-|
A|-7---7-7---7-7-7-|-4---4-4---4-4-4-|-4---4-4---4-4-4-|-2---2-2---2-2-2-|
E|-5---5-5---5-5-5-|-----------------|-2---2-2---2-2-2-|-0---0-0---0-0-0-|(x4)


[Chorus 3]

e|-----------------|-----------------|-----------------|-----------------|
B|-----------------|-----------------|-----------------|-----------------|
G|-4---4-4---4-4-4-|-----------------|-6---6-6---6-6-6-|-----------------|
D|-4---4-4---4-4-4-|-2---2-2---2-2-2-|-6---6-6---6-6-6-|-4---4-4---4-4-4-|
A|-2---2-2---2-2-2-|-2---2-2---2-2-2-|-4---4-4---4-4-4-|-4---4-4---4-4-4-|
E|-----------------|-0---0-0---0-0-0-|-----------------|-2---2-2---2-2-2-|

e|-----------------|-----------------|-----------------|-----------------|
B|-----------------|-----------------|-----------------|-----------------|
G|-7---7-7---7-7-7-|-----------------|-2---2-2-6---6-6-|-----------------|
D|-7---7-7---7-7-7-|-2---2-2---2-2-2-|-2---2-2-6---6-6-|-4---4-4---4-4-4-|
A|-5---5-5---5-5-5-|-2---2-2---2-2-2-|-0---0-0-6---4-4-|-4---4-4---4-4-4-|
E|-----------------|-0---0-0---0-0-0-|-----------------|-2---2-2---2-2-2-|

e|-----------------|-----------------|-----------------|-----------------|
B|-----------------|-----------------|-----------------|-----------------|
G|-----------------|-----------------|-----------------|-----------------|
D|-2---2-2---2-2-2-|-2---2-2---2-2-2-|-2---2-2---2-2-2-|-2---2-2---2-2-2-|
A|-2---2-2---2-2-2-|-2---2-2---2-2-2-|-2---2-2---2-2-2-|-2---2-2---2-2-2-|
E|-0---0-0---0-0-0-|-0---0-0---0-0-0-|-0---0-0---0-0-0-|-0---0-0---0-0-0-|


[Outro]
e|---|
B|---|
G|-2-|
D|-2-|
A|-0-|
E|---|
Suggest correction
Give kudos to tab author, rate the tab!
1 2 3 4 5
comments
print report bad tab
guest
You may want to rate the tab now too:
select rating
Wanna post a correction for this tab? Suggest correction