Oops, an error
Loading. Please wait.

Woah Tab

10 views 1 this week
no commentswrite comment
1 2 3 4 5
3 more votes to show rating
add to favorites
launch autoscroll
font size
0
reset
how to read this tab
guitar tuner
Autoscroll
slow
fast
+/-
esc
set tempo
stop
Help us to improve Ultimate-Guitar.com Take our survey!
×
Author
Difficulty
novice
Woah
Dog Party
'Til You're Mine (2016)

Standard Tuning


[Intro]

e|-----------------|-----------------|-----------------|-----------------|
B|-----------------|-----------------|-----------------|-----------------|
G|---------7-7-7-7-|-9-9-9-9---------|---------7-7-7-7-|-9-9-9-9---------|
D|-9-9-9-9-7-7-7-7-|-9-9-9-9-9-9-9-9-|-9-9-9-9-7-7-7-7-|-9-9-9-9-9-9-9-9-|
A|-9-9-9-9-5-5-5-5-|-7-7-7-7-9-9-9-9-|-9-9-9-9-5-5-5-5-|-7-7-7-7-9-9-9-9-|
E|-7-7-7-7---------|---------7-7-7-7-|-7-7-7-7---------|---------7-7-7-7-|


[Verse 1]

e|-----------------|-----------------|-----------------|-----------------|
B|-----------------|-----------------|-----------------|-----------------|
G|---------7-7-7-7-|-9-9-9-9---------|---------7-7-7-7-|-9-9-9-9---------|
D|-9-9-9-9-7-7-7-7-|-9-9-9-9-9-9-9-9-|-9-9-9-9-7-7-7-7-|-9-9-9-9-9-9-9-9-|
A|-9-9-9-9-5-5-5-5-|-7-7-7-7-9-9-9-9-|-9-9-9-9-5-5-5-5-|-7-7-7-7-9-9-9-9-|
E|-7-7-7-7---------|---------7-7-7-7-|-7-7-7-7---------|---------7-7-7-7-|(x2)


[Chorus]

e|-----------------|-----------------|-----------------|-----------------|
B|-----------------|-----------------|-----------------|-----------------|
G|-----------------|-----------------|-----------------|-----------------|
D|-7-7-7-7-7-7-7-7-|-7-7-7-7-7-7-7-7-|-9-9-9-9-9-9-9-9-|-9-9-9-9-9-9-9-9-|
A|-7-7-7-7-7-7-7-7-|-7-7-7-7-7-7-7-7-|-9-9-9-9-9-9-9-9-|-9-9-9-9-9-9-9-9-|
E|-5-5-5-5-5-5-5-5-|-5-5-5-5-5-5-5-5-|-7-7-7-7-7-7-7-7-|-7-7-7-7-7-7-7-7-|

e|-----------------|-----------------|
B|-----------------|-----------------|
G|-----------------|-----------------|
D|-7-7-7-7-7-7-7-7-|-7-7-7-7-7-7-7-7-|
A|-7-7-7-7-7-7-7-7-|-7-7-7-7-7-7-7-7-|
E|-5-5-5-5-5-5-5-5-|-5-5-5-5-5-5-5-5-|

e|-----------|-----------|-----------|-----------|
B|-----------|-----------|-----------|-----------|
G|-----------|-----------|-----------|-----------|
D|-7-9-x-x-x-|-7-9-x-x-x-|-7-9-x-x-x-|-7-9-x-x-x-|
A|-7-9-x-x-x-|-7-9-x-x-x-|-7-9-x-x-x-|-7-9-x-x-x-|
E|-5-7-x-x-x-|-5-7-x-x-x-|-5-7-x-x-x-|-5-7-x-x-x-|


[Verse 2]

e|-----------------|-----------------|-----------------|-----------------|
B|-----------------|-----------------|-----------------|-----------------|
G|---------7-7-7-7-|-9-9-9-9---------|---------7-7-7-7-|-9-9-9-9---------|
D|-9-9-9-9-7-7-7-7-|-9-9-9-9-9-------|-9-9-9-9-7-7-7-7-|-9-9-9-9-9-9-9-9-|
A|-9-9-9-9-5-5-5-5-|-7-7-7-7-9-------|-9-9-9-9-5-5-5-5-|-7-7-7-7-9-9-9-9-|
E|-7-7-7-7---------|---------7-------|-7-7-7-7---------|---------7-7-7-7-|

e|-----------------|-----------------|-----------------|-----------------|
B|-----------------|-----------------|-----------------|-----------------|
G|---------7-7-7-7-|-9-9-9-9---------|---------7-7-7-7-|-9-9-9-9---------|
D|-9-9-9-9-7-7-7-7-|-9-9-9-9-9-9-9-9-|-9-9-9-9-7-7-7-7-|-9-9-9-9-9-9-9-9-|
A|-9-9-9-9-5-5-5-5-|-7-7-7-7-9-9-9-9-|-9-9-9-9-5-5-5-5-|-7-7-7-7-9-9-9-9-|
E|-7-7-7-7---------|---------7-7-7-7-|-7-7-7-7---------|---------7-7-7-7-|


[Chorus]

e|-----------------|-----------------|-----------------|-----------------|
B|-----------------|-----------------|-----------------|-----------------|
G|-----------------|-----------------|-----------------|-----------------|
D|-7-7-7-7-7-7-7-7-|-7-7-7-7-7-7-7-7-|-9-9-9-9-9-9-9-9-|-9-9-9-9-9-9-9-9-|
A|-7-7-7-7-7-7-7-7-|-7-7-7-7-7-7-7-7-|-9-9-9-9-9-9-9-9-|-9-9-9-9-9-9-9-9-|
E|-5-5-5-5-5-5-5-5-|-5-5-5-5-5-5-5-5-|-7-7-7-7-7-7-7-7-|-7-7-7-7-7-7-7-7-|

e|-----------------|-----------------|
B|-----------------|-----------------|
G|-----------------|-----------------|
D|-7-7-7-7-7-7-7-7-|-7-7-7-7-7-7-7-7-|
A|-7-7-7-7-7-7-7-7-|-7-7-7-7-7-7-7-7-|
E|-5-5-5-5-5-5-5-5-|-5-5-5-5-5-5-5-5-|

e|-----------|-----------|-----------|-----------|
B|-----------|-----------|-----------|-----------|
G|-----------|-----------|-----------|-----------|
D|-7-9-x-x-x-|-7-9-x-x-x-|-7-9-x-x-x-|-7-9-x-x-x-|
A|-7-9-x-x-x-|-7-9-x-x-x-|-7-9-x-x-x-|-7-9-x-x-x-|
E|-5-7-x-x-x-|-5-7-x-x-x-|-5-7-x-x-x-|-5-7-x-x-x-|


[Verse 3]

e|-----------------|-----------------|-----------------|-----------------|
B|-----------------|-----------------|-----------------|-----------------|
G|---------7-7-7-7-|-9-9-9-9---------|---------7-7-7-7-|-9-9-9-9---------|
D|-9-9-9-9-7-7-7-7-|-9-9-9-9-9-9-9-9-|-9-9-9-9-7-7-7-7-|-9-9-9-9-9-9-9-9-|
A|-9-9-9-9-5-5-5-5-|-7-7-7-7-9-9-9-9-|-9-9-9-9-5-5-5-5-|-7-7-7-7-9-9-9-9-|
E|-7-7-7-7---------|---------7-7-7-7-|-7-7-7-7---------|---------7-7-7-7-|(x2)


[Chorus]

e|-----------------|-----------------|-----------------|-----------------|
B|-----------------|-----------------|-----------------|-----------------|
G|-----------------|-----------------|-----------------|-----------------|
D|-7-7-7-7-7-7-7-7-|-7-7-7-7-7-7-7-7-|-9-9-9-9-9-9-9-9-|-9-9-9-9-9-9-9-9-|
A|-7-7-7-7-7-7-7-7-|-7-7-7-7-7-7-7-7-|-9-9-9-9-9-9-9-9-|-9-9-9-9-9-9-9-9-|
E|-5-5-5-5-5-5-5-5-|-5-5-5-5-5-5-5-5-|-7-7-7-7-7-7-7-7-|-7-7-7-7-7-7-7-7-|

e|-----------------|-----------------|
B|-----------------|-----------------|
G|-----------------|-----------------|
D|-7-7-7-7-7-7-7-7-|-7-7-7-7-7-7-7-7-|
A|-7-7-7-7-7-7-7-7-|-7-7-7-7-7-7-7-7-|
E|-5-5-5-5-5-5-5-5-|-5-5-5-5-5-5-5-5-|

e|-----------|-----------|-----------|-----------|
B|-----------|-----------|-----------|-----------|
G|-----------|-----------|-----------|-----------|
D|-7-9-x-x-x-|-7-9-x-x-x-|-7-9-x-x-x-|-7-9-x-x-x-|
A|-7-9-x-x-x-|-7-9-x-x-x-|-7-9-x-x-x-|-7-9-x-x-x-|
E|-5-7-x-x-x-|-5-7-x-x-x-|-5-7-x-x-x-|-5-7-x-x-x-|


[Solo]

e|---------|-----------|---------|-----------|
B|---------|-----------|---------|-----------|
G|---------|-----------|-----7-7-|-9-9-8-8-8-|
D|---------|-----------|-9-9-----|-----------|
A|-----5-5-|-7-7-6-6-6-|---------|-----------|
E|-7-7-----|-----------|---------|-----------|

e|---------|------------|-------------|--------------|
B|---------|------------|-------------|--------------|
G|-----7-7-|-9b10b9-7---|-----7-----7-|--------------|
D|-9-9-----|----------9-|-7h9---7h9---|-7h9----------|
A|---------|------------|-------------|------9-7-5\4-|
E|---------|------------|-------------|--------------|


[Chorus]

e|-----------------|-----------------|-----------------|-----------------|
B|-----------------|-----------------|-----------------|-----------------|
G|-----------------|-----------------|-----------------|-----------------|
D|-7-7-7-7-7-7-7-7-|-7-7-7-7-7-7-7-7-|-9-9-9-9-9-9-9-9-|-9-9-9-9-9-9-9-9-|
A|-7-7-7-7-7-7-7-7-|-7-7-7-7-7-7-7-7-|-9-9-9-9-9-9-9-9-|-9-9-9-9-9-9-9-9-|
E|-5-5-5-5-5-5-5-5-|-5-5-5-5-5-5-5-5-|-7-7-7-7-7-7-7-7-|-7-7-7-7-7-7-7-7-|

e|-----------------|-----------------|
B|-----------------|-----------------|
G|-----------------|-----------------|
D|-7-7-7-7-7-7-7-7-|-7-7-7-7-7-7-7-7-|
A|-7-7-7-7-7-7-7-7-|-7-7-7-7-7-7-7-7-|
E|-5-5-5-5-5-5-5-5-|-5-5-5-5-5-5-5-5-|

e|-----------|-----------|-----------|-----------|
B|-----------|-----------|-----------|-----------|
G|-----------|-----------|-----------|-----------|
D|-7-9-x-x-x-|-7-9-x-x-x-|-7-9-x-x-x-|-7-9-x-x-x-|
A|-7-9-x-x-x-|-7-9-x-x-x-|-7-9-x-x-x-|-7-9-x-x-x-|
E|-5-7-x-x-x-|-5-7-x-x-x-|-5-7-x-x-x-|-5-7-x-x-x-|


[Outro]

e|-----------|-----------|-----------|
B|-----------|-----------|-----------|
G|-----------|-----------|-----------|
D|-7-9-x-x-x-|-7-9-x-x-x-|-7-9-------|
A|-7-9-x-x-x-|-7-9-x-x-x-|-7-9-------|
E|-5-7-x-x-x-|-5-7-x-x-x-|-5-7-------|



***********************************

| x   Deadnote
| b   Bend
| h   Hammer On
| \   Slide Down

***********************************
Suggest correction
Give kudos to tab author, rate the tab!
1 2 3 4 5
comments
print report bad tab
guest
You may want to rate the tab now too:
select rating
Wanna post a correction for this tab? Suggest correction