Oops, an error
Loading. Please wait.

Everything Falls Apart Tab

257 views 1 this week
no commentswrite comment
1 2 3 4 5
2 more votes to show rating
add to favorites
launch autoscroll
font size
0
reset
how to read this tab
guitar tuner
Autoscroll
slow
fast
+/-
esc
set tempo
stop
Help us to improve Ultimate-Guitar.com Take our survey!
×
Author
Difficulty
intermediate
-------------------------------------------------------------------------------
                             Everything Falls Apart - Dogs Eye View
-------------------------------------------------------------------------------
Tabbed by:Ryan Harper
E-mail:ripstickdude629@gmail.com

Tuning:EADGBe

Chords:
E   022100
g#m 066400
f#m 044200
A   002200
B   024400
A2  577600
B2  799800

Intro

riff 1
   E                       B
e|-0------------------------------|                          Song Order
B|-0------------------------------|                          ----------
G|-1--------------1--2-----444444-|
D|-2-------2------------4--444444-|                           Riff 1
A|-2----2-----2------------222222-|                           Verse
E|-0------------------------------|                           Riff 1
        .  .  .   .  .                                        Verse
                                                              Pre-Chorus
Verse                                                         Chorus
   E      g#m  f#m     g#m                                    Riff 1
e|-0---x---0----0---x---00-|                                  Versex2
B|-0---x---0----0---x---00-|                                  Pre-Chorus                
G|-1---x---4----2---x---44-|                                  Chorus
D|-2---x---6----4---x---44-|play 4 times                      Verse(for solo)
A|-2---x---6----4---x---66-|                                  Bridge
E|-0---x------------x------|                                  Pre-Chorus                        
                                                              Chorus
                                                              Play Chorus til end of song
Pre-Chorus
    A    B
e|--0----0---|
B|--0----0---|figure out
G|--2----4---|strumming play twice
D|--2----4---|pattern
A|--0----2---|
E|-----------|

Chorus

   E      g#m  f#m     g#m      A          B
e|-0---x---0----0---x---00------0000000----0000000---|
B|-0---x---0----0---x---00------0000000----0000000---|
G|-1---x---4----2---x---44------2222222----4444444---|
D|-2---x---6----4---x---44------2222222----4444444---|
A|-2---x---6----4---x---66------0000000----2222222---|
E|-0---x------------x--------------------------------|

   E      g#m  f#m     g#m      A          B
e|-0---x---0----0---x---00------0000000----0000000---|
B|-0---x---0----0---x---00------0000000----0000000---|
G|-1---x---4----2---x---44------6666666----8888888---|
D|-2---x---6----4---x---44------7777777----9999999---|
A|-2---x---6----4---x---66------7777777----9999999---|
E|-0---x------------x-----------5555555----7777777---|


Bridge

e|-0-x---0---|                       e|-0-x----------------|
B|-0-x---0---|play three times, then B|-0-x----------------|
G|-1-x---2---|                       G|-1-x----------------|
D|-2-x---4---|                       D|-2-x---2h4-2--------|
A|-2-x---4---|                       A|-2-x---------4--2---|
E|-0-x-------|                       E|-0-x----------------|
                                              ... . .  .
Solo figure it out 


************************************

| /   slide up
| \   slide down
| h   hammer-on
| p   pull-off
| ~   vibrato
| +   harmonic
| .   Palm-Mute note
| x   Mute Strings
| b   Bend
| pb  Pre-bend
| br  Bend release
| pbr Pre-bend release
| brb Bend release bend

************************************
Suggest correction
Give kudos to tab author, rate the tab!
1 2 3 4 5
comments
print report bad tab
guest
You may want to rate the tab now too:
select rating
Wanna post a correction for this tab? Suggest correction