Oops, an error
Loading. Please wait.

Set It On Fire Tab

206 views 1 this week
no commentswrite comment
1 2 3 4 5
please rate
add to favorites
launch autoscroll
font size
0
reset
how to read this tab
guitar tuner
Autoscroll
slow
fast
+/-
esc
set tempo
stop
Help us to improve Ultimate-Guitar.com Take our survey!
×
Artist: Dogtanion
Song: Set It On Fire
Album: Japan
Tabbed By: King Of Suede
E-mail: kingofsuede(at)verizon.net

Tuning
DADF#GBE

Riff
1|--------------------------|
2|--------------------------|
3|-----0~-|-0------|--------|
4|-0-2-0~-|---2-0~-|-0-2-0--|
5|--------|--------|--------|
6|--------|-----2~-|-----5--|

Chorus Riff
1|----------------------------------|
2|----------------------------------|
3|----------------------------------|
4|-0--0-2-|-9--5--|-0--0-2-|-9-7-5--|
5|-0--0-2-|-9--5--|-0--0-2-|-9-7-5--|
6|-0--0-2-|-9--5--|-0--0-2-|-9-7-5--|


Intro
(Riff 4x)

(Verse 2)
(Play riff with verse)
Lets not fight
Lets just fuck
And let sleep

I'm not drunk
I'm just tired
Let me be

(Chorus)
(2nd time play Chorus Riff)
Set it on fire
Set it on fire
I'm in the open
Set it on fire
Set it on fire (x2)

(Riff x2)

(Verse 2)
I'm not fussed
But lets go
Cause we're late

If you think
I look cool
You're mistaken

(Chorus)
Set it on fire
Set it on fire
I'm in the open
Set it on fire
Set it on fire
x3

(Corrections to the lyrics are much appreciated either in the comments or by email)
http://www.dogtanion.com/
Suggest correction
Give kudos to tab author, rate the tab!
1 2 3 4 5
comments
print report bad tab
guest
You may want to rate the tab now too:
select rating
Wanna post a correction for this tab? Suggest correction