Oops, an error
Loading. Please wait.

Alone Again Tab

version 1
version 1

Whole song

Interactive

54,177 views 54 this week
2 commentsread comments
1 2 3 4 5
x 24
add to favorites
launch autoscroll
font size
0
reset
how to read this tab
guitar tuner
Autoscroll
slow
fast
+/-
esc
set tempo
stop
Help us to improve Ultimate-Guitar.com Take our survey!
×
Author
Tuning:Eb,Ab,Db,Gb,Bb,Eb

[Intro]
(Acoustic Guitar)
Eb|----0-------------|-----------------------|----0-------------|----------|
Bb|------0-----------|----1--------3---------|------0-----------|----1-----|
Gb|--------0---------|----0----------2-------|--------0---------|----------|
Db|----------4-------|------2-0-0------0-4/5-|----------4-------|----------|
Ab|--------------0-2-|-3---------------------|--------------0-2-|-3--------|
Eb|--0---------------|-----------------------|-0----------------|----------|

Eb|--------------------|----0-------------|-------------0-----------|------|
Bb|--------3-----------|------0-----------|----1--------3-3---------|------|
Gb|-0--------2---------|--------0---------|------0----------2-------|------|
Db|---0-0------0-4/5\4-|----------4-------|--------0-0--------4/5\4-|------|
Ab|--------------------|--------------0-2-|-3-----------------------|------|
Eb|--------------------|-0----------------|-------------------------|-0----|

Eb|--0-------------|-------------3------|-----------------|------0--------|
Bb|----0-----------|----1--------3---3--|-----------------|--------0------|
Gb|------0---------|------0--------0-2--|--5--------7-----|----------0----|
Db|--------4-------|--------2-0------0--|--5----5---7---2-|---------------|
Ab|------------0-2-|-3--------x---------|--3----5---5---2-|---------------|
Eb|----------------|----------3---------|-------3-------0-|-(0)-----------|
                                            "..comes tonight"

Eb|---------|----------------------|---------|------------|----------------|
Bb|---------|----1-----------------|---------|------------|----------------|
Gb|---------|------0---------------|-5---7---|-4---2---4--|-5---7----------|
Db|-4-------|--------0-0--4/5\4--0-|-5---7---|-4---2---4--|-5---7----------|
Ab|-----0-2-|-3--------------------|-3---5---|-2---2---2--|-3---5----------|
Eb|---------|----------------------|---------|------------|--------x-12\---|
                                    "    still     I    know   how  it feels

Eb|-----------------------------------------|------------------------------|
Bb|---------------------8-7-----------------|----------------------8-7-----|
Gb|----------9\---------7-7------7----------|---------9---7--2-2-2-7-7-----|
Db|----------9\-------------5----7----------|---------9---7--2-2-2---------|
Ab|----------7\-------------5----5----------|---------7---5--0-0-0---------|
Eb|---0--0-0-----0--0-0-----3--------0--3-2-|-0-0-0-0----------------------|

Eb|--------------|-------------------------|------------|------------------|
Bb|--------------|---------------------8-7-|------------|------------------|
Gb|------7-----2-|---------9--7--2-2-2-7-7-|------2-----|---5---5----------|
Db|-5----7-----2-|---------9--7--2-2-2-----|--5---2-----|---5---5----------|
Ab|-5----5-----0-|---------7--5--0-0-0-----|--5---0-----|---3---7----------|
Eb|-3--------3---|-0-0-0-0-----------------|--3---------|-----------0------|

[Guitar solo]
Eb|--------|---------|--------------------------------|--------------------|
Bb|--6-----|---------|--------------------------------|--------------------|
Gb|--9-----|---------|--------------------------------|--------------------|
Db|--9-----|-x\------|--------------------------------|----7b9--r-5p7------|
Ab|--7-----|-x\-10\7-|-(7)-------(7)\--/7-9-10p9------|--------------------|
Eb|--------|---------|---------------------------10-7-|-8------------------|

Eb|-------------------------------------------|------------------10--------|
Bb|---------------------------------7-8p7-----|-------10b12---10----10~----|
Gb|-------------7--9~---9~--(9)\-/9-------9-7-|----------------------------|
Db|-5\4-5-----9-------------------------------|-10~------------------------|
Ab|-------5-5---------------------------------|----------------------------|
Eb|-------------------------------------------|----------------------------|

Eb|---------------------------14b15---r12p14-12-----17b19--r---x-22b24-----|
Bb|--15--15b17---r-15b16------------------------13~------------------------|
Gb|------------------------------------------------------------------------|
Db|------------------------------------------------------------------------|
Ab|------------------------------------------------------------------------|
Eb|------------------------------------------------------------------------|

Eb|--r--22~--/17-19-20p19-17-19~-|------17---------------------------------|
Bb|------------------------------|--/19----20-19-17------------------------|
Gb|------------------------------|------------------19b21-------/14-16-----|
Db|------------------------------|-----------------------------------------|
Ab|------------------------------|-----------------------------------------|
Eb|------------------------------|-----------------------------------------|

Eb|------------------------------------------------------------------------|
Bb|-15-17-15p17-15\13--15-13p15-13\12--13-12p13-12\10--12-10p12-10\8-------|
Gb|------------------------------------------------------------------------|
Db|------------------------------------------------------------------------|
Ab|------------------------------------------------------------------------|
Eb|------------------------------------------------------------------------|

Eb|--------------------------|----------------------------|----------------|
Bb|-10-8p10-8\7--7\5~--------|------10-12-10p12-10\8-10p8-|---8~-----------|
Gb|--------------------------|-9b11-----------------------|-9--------------|
Db|--------------------------|----------------------------|----------------|
Ab|--------------------------|----------------------------|----------------|
Eb|--------------------------|----------------------------|----------------|

Eb|---------------------------------------------17b19--r17~----------------|
Bb|-x-15b17--15~-12p15--12-------------------------------------------------|
Gb|-x----------------------15p14-12----------------------------------------|
Db|----------------------------------14~-----------------------------------|
Ab|------------------------------------------------------------------------|
Eb|----------------------------------------------------------8~------------|

Eb|----------|--------------------------|----------------|-----------------|
Bb|----------|--------------------------|----------------|-----------------|
Gb|----------|--------------------------|-----5~----7~---|-9~----9~9-(9)\--|
Db|----------|--------------------------|----------------|-----------------|
Ab|----------|-------------9-10p9-------|----------------|-----------------|
Eb|--10~-----|-12--12~--12--------12-10-|----------------|-----------------|

Eb|--------------|-------------|-----------------------|----------|--------|
Bb|----7-8p7-----|-------------|-----------------------|----------|--------|
Gb|--9-------9-7-|-5~---7~-----|-4~--4~--4~--4~4~4~--4\|-5~----7--|--------|
Db|--------------|-------------|-----------------------|----------|---4----|
Ab|--------------|-------------|-----------------------|----------|--------|
Eb|--------------|-------------|-----------------------|----------|-0------|

Eb|-----0-------|-(0)----------|
Bb|---0---0-----|-(0)----------|
Gb|-0-------0---|-(0)----------|
Db|-----------4-|-(4)----------|
Ab|-------------|--------------|
Eb|-------------|--0-----------|


************************************

| b    Bend
| /    Slide up
| \    Slide down
| x    Dead note
| (n)  Ghost note
| p    Pull-off
| r    Release
| ~    Vibrato

************************************
Suggest correction
comments
print report bad tab
2 comments total.
+3 reply
Fender_Tele'71 10 Dec 23, 2007 06:47 PM

very good tab...
5 stars

+1 reply
mightmuffin 40 Apr 08, 2009 05:32 PM

Cool tab

guest
You may want to rate the tab now too:
select rating
Wanna post a correction for this tab? Suggest correction