Oops, an error
Loading. Please wait.

Breaking The Chains Tab

version 1
version 1

Whole song

Interactive

54,100 views 24 this week
5 commentsread comments
1 2 3 4 5
x 28
add to favorites
launch autoscroll
font size
0
reset
how to read this tab
guitar tuner
Autoscroll
slow
fast
+/-
esc
set tempo
stop
Help us to improve Ultimate-Guitar.com Take our survey!
×
[Intro]                                                                          
e|---------------------------------------|---------------------------------------|
B|---------------------------------------|---------------------------------------|
G|-9-9-\-7----------7-7-\--5-------------|-5-5-/-7--------7--7--/------9---------|
D|-9-9-\-7----------7-7-\--5-------------|-5-5-/-7--------7--7--/------9---------|
A|-7-7-\-5----------5-5-\--3-------------|-3-3-/-5--------5--5--/------7---------|
E|---------0-0-0-0---------------0-0-0-0-|--------0-0-0-0----------------0-0-0-0-|
                                                                              
[Octave Part]                                                                   
e|---------------------------------------|---------------------------------------|
B|---------------------------------------|---------------------------------------|
G|-9-9-/--11-x-x-11-x-x-11-x-x--11-x-x---|-12-x-x-12-x-x--12-x-x---12--x-x-------|
D|---------------------------------------|---------------------------------------|
A|-7-7-/--9--x-x-9--x-x-9--xx---9--x-x---|-10-x-x-10-x-x--10-x-x---10--x-x-------|
E|---------------------------------------|---------------------------------------|
                                                                                             
e|--------------------------------------|----------------[12]---17----19-~-~-~--|
B|--------------------------------------|----------[12]-------------------------|
G|--14-x-x-14-x-x---14-x-x-----14-x--x--|---16----------------------------------|
D|--------------------------------------|---------------------------------------|
A|--12-x-x-12-x-x---12-x-x-----12-x--x--|---14----------------------------------|
E|--------------------------------------|---------------------------------------|
                                                                              
[Verse]                                                                         
e|---------------------------------------|---------------------------------------|
B|---------------------------------------|---------------------------------------|
G|-9-9-\-7----------7-7-\--5-------------|-5-5-/-7---------7--7--/-----9---------|
D|-9-9-\-7----------7-7-\--5-------------|-5-5-/-7---------7--7--/-----9---------|
A|-7-7-\-5----------5-5-\--3-------------|-3-3-/-5---------5--5--/-----7---------|
E|---------0-0-0-0---------------0-0-0-0-|---------0-0-0-0---------------0-0-0-0-|
                                                                              
e|--------------------------------------|---------------------------------------|
B|--------------------------------------|---------------------------------------|
G|-9-9-\-7---------7-7-\--5-------------|-5-5-/-7---------7--7--/------9--------|
D|-9-9-\-7---------7-7-\--5-------------|-5-5-/-7---------7--7--/------9--------|
A|-7-7-\-5---------5-5-\--3-------------|-3-3-/-5---------5--5--/------7--------|
E|--------0-0-0-0---------------0-0-0-0-|---------0-0-0-0-----------------------|
                                                                                                         
e|--------------------------------------|--------------------------------------|
B|--3-3---------------------------------|--------------------------------------|
G|--0-0--7-7---------7-7-\--5-----------|-5-5-/-7---------7--7--/---9----------|
D|--0-0--7-7---------7-7-\--5-----------|-5-5-/-7---------7--7--/---9----------|
A|-------5-5---------5-5-\--3-----------|-3-3-/-5---------5--5--/---7----------|
E|--3-2------0-0-0-0------------0-0-0-0-|---------0-0-0-0--------------0-0-0-0-|
                                                                                                             
e|--------------------------------------|--------------------------------------|
B|--------------------------------------|--------------------------------------|
G|-9-9-\-7---------7-7-\--5-------------|-5-5-/-7---------7--7--/----9---------|
D|-9-9-\-7---------7-7-\--5-------------|-5-5-/-7---------7--7--/----9---------|
A|-7-7-\-5---------5-5-\--3-------------|-3-3-/-5---------5--5--/----7---------|
E|---------0-0-0-0--------------0-0-0-0-|---------0-0-0-0----------------------|
                                                                              
[Chorus]                                 
e|---------------------------------------|--------------------------------------|
B|-----------------------------------3---|--3-----------------------------------|
G|----7-------5------0-------2-------2---|--0--------------9------7-----9-------|
D|----7-------5------0-------2-------0---|--0--------------9------7-----9-------|
A|----5-------3------2-------0-----------|-----------------7------5-----7-------|
E|---------------------------------------|--3--------0--------------------------|
                                                                                                            
e|--------------------------------------|--------------------------------------|
B|--------------------------------------|--3-----------------------------------|
G|--5---------------9-----7-----9-------|--0---------------9-----7-----9-------|
D|--5---------------9-----7-----9-------|--0---------------9-----7-----9-------|
A|--3---------------7-----5-----7-------|------------------7-----5-----7-------|
E|-----------0--------------------------|--3--------0--------------------------|
                                                                              
 Now Your Breakin' the Chains                                                   
e|---------------------------------------|---------------------------------------|
B|---------------------------------------|---------------------------------------|
G|--5-------7---------9-9-9-9------------|---------------------------------------|
D|--5-------7---------9-9-9-9------------|---------------------------------------|
A|--3-------5---------7-7-7-7------------|---------------------------------------|
E|---------------------------------------|---------------------------------------|
                                                                              
[Prelude to solo]                                                               
e|--------------------------------------|-------------------------------------|
B|--------------------------------------|-------------------------------------|
G|---9----------7---------5-------------|---5---------7-------9---------------|
D|---9----------7---------5-------------|---5---------7-------9---------------|
A|---7----------5---------3-------------|---3---------5-------7---------------|
E|--------------------------------------|-------------------------------------|
                                                                                                         
e|--------------------------------------|-------------------------------------|
B|--------------------------------------|-------------------------------------|
G|---9---------7---------5--------------|---5---------7-------9---------------|
D|---9---------7---------5--------------|---5---------7-------9---------------|
A|---7---------5---------3--------------|---3---------5-------7---------------|
E|--------------------------------------|-------------------------------------|

2. Song: Breaking the Chains-Guitar Solo
                                                                                
e|----------------------------------------|--------------------------p-h-p-h------|
B|--------b---------------------b---------|-------7-8-10-10~--12-10-8-7-8-7-8-----|
G|----9--11-11-(12)-11-(12)-11--11--9-----|----8-------------------------------9~-|
D|-9----------------------------------10~-|--9------------------------------------|
A|----------------------------------------|---------------------------------------|
E|----------------------------------------|---------------------------------------|
                                                                                                  
e|------14-14-(15)-14-(15)-14-(15)-12-14-12-----|---------------7-----------------|
B|---12--b---------------------------h--p---13-~|------7--8--10-----8--7----------|
G|-12-------------------------------------------|---8---------------------9~~-----|
D|----------------------------------------------|-9-------------------------------|
A|----------------------------------------------|---------------------------------|
E|----------------------------------------------|---------------------------------|          
                                                                                
e|--17--17-(18)--17-(18)---17--(18)---17-|-(18)------15---14-------p-------------|
B|--b------------------------------------|--------------p------15----14----------|
G|---------------------------------------|-------------------------------16-~-~--|
D|---------------------------------------|---------------------------------------|
A|---------------------------------------|---------------------------------------|
E|---------------------------------------|---------------------------------------|
                                                                                   
e|-----20---17---15--14--17--15--14------|--22---22----22~~-----20--19---17------|
B|-15--b--------------------p---p---17~--|--b-----b------------------------------|
G|---------------------------------------|---------------------------------------|
D|---------------------------------------|---------------------------------------|
A|---------------------------------------|---------------------------------------|
E|---------------------------------------|---------------------------------------|
                                                                                                     
e|--17--19--17-\--15---15---17-15-\12~--\|---------------------------------------|
B|----h---p---------------h---p----------|---------------------------------------|
G|---------------------------------------|---------------------------------------|
D|---------------------------------------|---------------------------------------|
A|---------------------------------------|---------------------------------------|
E|---------------------------------------|---------------------------------------|
Suggest correction
comments
print report bad tab
5 comments total. Showing first comments.
+2 reply
Scott Imhof 10 Mar 18, 2007 09:05 PM

Nice tab dude! Keep on rockin' with Dokken!

+1 reply
gerardk 30 Nov 07, 2008 07:13 PM

Great tab man!Rock On!

0 reply
Im a Rattlehead 740 Aug 27, 2011 06:49 PM

Great tab but instead of the 17th & 19th fret notes of the high e string in the intro lead, it's a natural harmonic on the 7th fret of that string with some tremolo action.

guest
You may want to rate the tab now too:
select rating
Wanna post a correction for this tab? Suggest correction