Oops, an error
Loading. Please wait.

Breaking The Chains bass

version 2
version 2

Whole song

Interactive

by Dokken
5,518 views 9 this week
3 commentsread comments
1 2 3 4 5
1 last vote to show rating
add to favorites
×
Save as Personal and add changes to this tab that will be seen only by you. Learn more ›
×
You can save this tab as Personal to edit and correct it or add notes. All changes will be seen only by you. Learn more »
launch autoscroll
font size
0
reset
guitar tuner
backing track
0:00
0:00
edit
Autoscroll
slow
fast
+/-
esc
set tempo
stop
----------------------------------------------------------------------------

                        Breaking The Chains-Dokken

----------------------------------------------------------------------------
This is how I play it, and I am quite sure it is correct. This is my first tab so if you 
any questions or comments you may email me.
E-mail Address : kyler92@sbcglobal.net
Tabbed By: Slipknot_Rocks6
This song is played in Standard Tuning (G,D,A,E)

Intro:
G-|----------------------------------------------------Repeat this part----| 6X
D-|------------------------------------------------------------------------|
A-|--7-7-5-5---------5-5-3-3---------3-3-5-5---------5-5-7-7---------------|
E-|----------0-0-0-0---------0-0-0-0---------0-0-0-0---------0-0-0-0-------|

Chorus:
G-|------------------------------------------------------------------------|
D-|----------------------------4-3-5-----4-3-5-----4-3-5-------------------|
A-|-5-5-7-7-7-7-3-3-3-2-2-2-5~~------5~~-------5~~-------5~~--5-7-8-10-9-7-|
E-|------------------------------------------------------------------------|

This part also ( I'm lacking a name for it but lets call it the bridge for now):
G-|-----------------------------------------------------------------------|
D-|-----------------------------------------------------------------------|
A-|-7-5-3-3-5-7-7-5-3-3-5-7-----------------------------------------------|
E-|-----------------------------------------------------------------------|


Ah yet another part I have no name for but its a shorter, tweaked version of the Verse ( 
call it the "S-Verse" Sorry im new to this)
G-|-----------------------------------------------------------------------|
D-|---4-3-5-----4-3-5-----4-3-5-------------------------------------------|
A-|-5-------5~~-------7~~-------7~~-3~~-----------------------------------|
E-|-----------------------------------------------------------------------|

Well I think i took a pretty good swing at it...
This song is great for beginners, but it is also very fun for all skill levels, it's a 
song. Enjoy!


Order of Song:
Intro:6X
Chorus:1X
Intro:5X
Chorus:1X
Bridge:1X
Intro:2X
"S-Verse":1X
Intro:4X
Chorus:1X
"S-Verse":1X

            
            
Suggest correction
Creating personal tab
Creating personal tab
You can edit any tab online and save it as your Personal.

You can edit, replace or remove any tab part or add personal notes – all changes will be seen only by you.

Personal tabs can be accessed anytime from any device, even offline.
Learn more »
Give kudos to tab author, rate the tab!
1 2 3 4 5
comments
print report bad tab
3 comments total.
0 reply
Slipknot_Rocks6 31 Jan 11, 2007 06:01 PM

Awesome Tab dude!!!

0 reply
Slipknot_Rocks6 31 Jan 11, 2007 06:02 PM

lol I posted for my own tab. Note that there are a few places where the tab was cut off, I apologize for that.None of the actual tab was affected, just my comments on the song.

0 reply
Black Ox 170 Feb 27, 2009 10:47 AM

There seems to be something different towards the end of each verse other than just repeating the basic thing 6 times.

guest
You may want to rate the tab now too:
select rating
Wanna post a correction for this tab? Suggest correction