Oops, an error
Loading. Please wait.

Burning Like A Flame bass

version 1
version 1

Whole song

Interactive

by Dokken
645 views 1 this week
no commentswrite comment
1 2 3 4 5
3 more votes to show rating
add to favorites
×
Save as Personal and add changes to this tab that will be seen only by you. Learn more ›
×
You can save this tab as Personal to edit and correct it or add notes. All changes will be seen only by you. Learn more »
launch autoscroll
font size
0
reset
guitar tuner
edit
Autoscroll
slow
fast
+/-
esc
set tempo
stop
Author
Difficulty
Artist: Dokken
Album: Back for the Attack
Song: Burning Like a Flame

Tuning: E Standard


Intro & Verse 1 (guitar, drums, and vocals only)

Never thought our love would last for so long 
Time and time again I thought that you would be gone 
Still we kept love hanging on, I guess it's meant to be 
That your heart still belongs to me

G-|-------| 
D-|-------|
A-|---3---|
E-|-5---3-|


Verse 2

G-|-----------------------------------------------------------------------|
D-|-----------------------------------------------------------------------|
A-|-5555-5555-5555-5555-5555-5555-5555-5555-5555-5555-5555-5555-5555-5555-|
E-|-----------------------------------------------------------------------|

And now we've stood the test of time, we survived

G-|-----------------------------------------------------------------------|
D-|-----------------------------------------------------------------------|
A-|-5555-5555-5555-5555-5555-5555-5555-5555-5555-5555-5555-5555-5555-5555-|
E-|-----------------------------------------------------------------------|

I asked for hope and a chance, to get the key to your heart 

G-|-----------------------------------------------------------------------|
D-|-----------------------------------------------------------------------|
A-|-5555-5555-5555-5555-5555-5555-5555-5555-5555-5555-5555-5555-5555-5555-|
E-|-----------------------------------------------------------------------|

You used to say that I'm not sincere, I'm gonna prove that you're wrong 

G-|-------------------------------|-----------------12--------------------|
D-|-------------------------------|-------------/10----10-----------------|
A-|-5555-5555-5555-5555-5555-5555-|---------3--------------------5-5-5----|
E-|-------------------------------|-2-3-4-5---3-----------5-5-5-----------|

I'm never gonna leave your arms    should’ve realized before, 
  Your love's worth waiting for 


Chorus

G-|------------------------------------|
D-|------------------------------------|
A-|-------------------------------3333-|
E-|-3333-3333-3333-3333-6666-6666------|

Don't you know that it's our love that's burning, burning like a flame

G-|------------------------------------|
D-|------------------------------------|
A-|-------------------------------3333-|
E-|-3333-3333-3333-3333-6666-6666------|

And you know that, it's out love that's never gonna change 

G-|------------------------------------|
D-|------------------------------------|
A-|-------------------------------3333-|
E-|-3333-3333-3333-3333-6666-6666------|

'cause every time I touch you, you just make me go insane 

G-|------------------------------------|
D-|------------------------------------|
A-|-------------------------------3333-|
E-|-3333-3333-3333-3333-6666-6666------|

Don't you know that it's our love that's burning 
Our love burning like a flame


Solo

G-|-------------------------------|
D-|-------------------------------|
A-|-5555-5555-5555-5555-5555-5555-|
E-|-------------------------------|


Verse 3

G-|-----------------------------------------------------------------------|
D-|-----------------------------------------------------------------------|
A-|-5555-5555-5555-5555-5555-5555-5555-5555-5555-5555-5555-5555-5555-5555-|
E-|-----------------------------------------------------------------------|

Like a fantasy in the dark, you were gone 

G-|-----------------------------------------------------------------------|
D-|-----------------------------------------------------------------------|
A-|-5555-5555-5555-5555-5555-5555-5555-5555-5555-5555-5555-5555-5555-5555-|
E-|-----------------------------------------------------------------------|

I couldn't say the words that you wanted to hear 

G-|-----------------------------------------------------------------------|
D-|-----------------------------------------------------------------------|
A-|-5555-5555-5555-5555-5555-5555-5555-5555-5555-5555-5555-5555-5555-5555-|
E-|-----------------------------------------------------------------------|

But baby, now that I see the light I feel it's burning so bright 

G-|-------------------------------|-----------------12--------------------|
D-|-------------------------------|-------------/10----10-----------------|
A-|-5555-5555-5555-5555-5555-5555-|---------3--------------------5-5-5----|
E-|-------------------------------|-2-3-4-5---3-----------5-5-5-----------|

So let's stop wasting all this time     should’ve seen it all before 
                                        Our love's worth waiting for 


Chorus

G-|------------------------------------|
D-|------------------------------------|
A-|-------------------------------3333-|
E-|-3333-3333-3333-3333-6666-6666------|

Don't you know that it's our love that's burning, burning like a flame

G-|------------------------------------|
D-|------------------------------------|
A-|-------------------------------3333-|
E-|-3333-3333-3333-3333-6666-6666------|

And you know that, it's out love that's never gonna change 

G-|------------------------------------|
D-|------------------------------------|
A-|-------------------------------3333-|
E-|-3333-3333-3333-3333-6666-6666------|

'cause every time I touch you, you just make me go insane 

G-|----------------------------------------------|
D-|----------------------------------------------|
A-|-------------------------------3333-5555-5555-|
E-|-3333-3333-3333-3333-6666-6666----------------|

Don't you know that it's our love that's burning 
Our love burning like a flame

Solo


G-|---REPEAT----THIS----PART----TWICE-------|
D-|-----------------------------------------|
A-|-----------------------------------------|
E-|-0000-0000-0000-0000-3333-3333-3333-3333-|

G-|-----------------------------------------|
D-|-----------------------------------------|
A-|-3333-3333-1111-1111-3333-3333-1111-1111-|
E-|-----------------------------------------|


Transition

G-|-----|-----|-------------12--------------------|
D-|-----|-----|----------10----10-----------------|
A-|-5-5-|-5-5-|------3--------------------5-5-5-5-|
E-|-----|-----|-5-55---3----------5-5-5-5---------|

Should've seen it all before your love's worth waiting for 


Chorus

G-|------------------------------------|
D-|------------------------------------|
A-|-------------------------------3333-|
E-|-3333-3333-3333-3333-6666-6666------|

Don't you know that it's our love that's burning, burning like a flame

G-|------------------------------------|
D-|------------------------------------|
A-|-------------------------------3333-|
E-|-3333-3333-3333-3333-6666-6666------|

And you know that it's our love that's never gonna change 

G-|------------------------------------|
D-|------------------------------------|
A-|-------------------------------3333-|
E-|-3333-3333-3333-3333-6666-6666------|

and every time I touch you, you just make me go insane 

G-|------------------------------------|
D-|------------------------------------|
A-|-------------------------------3333-|
E-|-3333-3333-3333-3333-6666-6666------|

Don't you know that it's our love that's burning 
Our love burning like a flame
Our love burning like a flame
Our love burning like a flame
Our love, never gonna change
Our love, never gonna change

            
            
Suggest correction
Creating personal tab
Creating personal tab
You can edit any tab online and save it as your Personal.

You can edit, replace or remove any tab part or add personal notes – all changes will be seen only by you.

Personal tabs can be accessed anytime from any device, even offline.
Learn more »
Give kudos to tab author, rate the tab!
1 2 3 4 5
comments
print report bad tab
guest
You may want to rate the tab now too:
select rating
Wanna post a correction for this tab? Suggest correction