Oops, an error
Loading. Please wait.

Dream Warriors tab

version 2
version 2

Whole song

Interactive

by Dokken
28,042 views 6 this week
2 commentsread comments
1 2 3 4 5
x 6
add to favorites
×
Save as Personal and add changes to this tab that will be seen only by you. Learn more ›
×
You can save this tab as Personal to edit and correct it or add notes. All changes will be seen only by you. Learn more »
launch autoscroll
font size
0
reset
how to read this tab
guitar tuner
backing track
0:00
0:00
edit
Autoscroll
slow
fast
+/-
esc
set tempo
stop
Author
Difficulty
Dream Warriors - Dokken

 Intro
  Moderate Rock Q=115
                  F/A     A5
 4/4
  Gtr I
  H    Q  E E      Q   E  E +H       +H..       E
|-------------||-------------------|--------------|
|-------------||o------------------|--------------|
|-------------||--10------9-(9)----|-(9)----------|
|-------------||---7------7-(7)----|-(7)----------|
|-----------0-||o-----(0)----------|------------0-|
|-------------||-------------------|--------------|


  1.
  F/A   A5         C5/G      G5
   Q.   E +Q    E  E   +E  E Q  +Q.   E
|--------------------|---------------------||
|--------------------|--------------------o||
|-10----9-(9)------5-|-(5)h7-7--(7)--------||
|--7----7-(7)------5-|-(5)---5--(5)--------||
|--------------(0)---|----------------0---o||
|--------------------|---------------------||


  2.
  F/A   A5        C5      D5
              Gtr Gtr II                       Gtr V
              TP                                TP
   Q.   E +E  Q   E   +E  E H.        +H.       Q
|-------------------|---------------|---------------||
|-------------------|---------------|---------------||
|-10----9-(9)-----5-|-(5)-7-7-------|-(7)-----------||
|--7----7-(7)-7\--5-|-(5)-7-7-------|-(7)-----------||
|-----------------3-|-(3)-5-5-------|-(5)------12\--||
|-------------------|---------------|---------------||


  E5/A              F5/A              E5/A                C5 D5
  Gtr II                                                              Gtr V
    PM|   PM----|     PM|   PM----|     PM|   PM------|               TP
  E E E E E E E E   E E E E E E E E   E E E E E E E S S   Q  E E +Q   Q
|-----------------|-----------------|-------------------|------------------|
|-----------------|-----------------|-------------------|------------------|
|-4-----4---------|-5-----5---------|-4-----4-----------|-5--7-7-(7)-------|
|-2-----2---------|-3-----3---------|-2-----2-----------|-5--7-7-(7)-------|
|-0-0-0-0-0-0-0-0-|-0-0-0-0-0-0-0-0-|-0-0-0-0-0-0-0-x-x-|-3--5-5-(5)--5\---|
|-----------------|-----------------|-------------------|------------------|


  E5/A              F5/A
  Gtr II
    PM|   PM----|     PM|   PM----|
  E E E E E E E E   E E E E E E E E
|-----------------|-----------------|
|-----------------|-----------------|
|-4-----4---------|-5-----5---------|
|-2-----2---------|-3-----3---------|
|-0-0-0-0-0-0-0-0-|-0-0-0-0-0-0-0-0-|
|-----------------|-----------------|


  E5/A                C5 D5
    PM|   PM------|
  E E E E E E E S S   Q  E E +E  S    +S  +E  E
|-------------------|---------------------------||
|-------------------|---------------------------||
|-4-----4-----------|-5--7-7-(7)----------------||
|-2-----2-----------|-5--7-7-(7)----------------||
|-0-0-0-0-0-0-0-x-x-|-3--5-5-(5)-5b6==(5)r(5)-3-||
|-------------------|---------------------------||


   1st, 2nd Verses
    E5/A                F5/A
      PM|    PM-----|     PM|    PM-----|
    E E E E  E  E E E   E E E E  E  E E E
||--------------------|-------------------|
||o-------------------|-------------------|
||--4-----4-----------|-5-----5-----------|
||--2-----2-----------|-3-----3-----------|
||o-0-0-0-0--0--0-0-0-|-0-0-0-0--0--0-0-0-|
||--------------------|-------------------|
|
|   Gtr I
|   E E E E +E  E Q     E E E E +E  E Q
||--------------------|-------------------|
||o-------0-(0)-------|-------0-(0)-------|
||------5-------5-----|-----5-------5-----|
||----2-----------2---|---3-----------5---|
||o-0-----------------|-0-----------------|
||--------------------|-------------------|


  E5/A                  C5  D5
    PM|    PM-------|
  E E E E  E  E E S S   Q   E E +Q    +Q
|---------------------|---------------------|
|---------------------|---------------------|
|-4-----4-------------|-5---7-7-(7)---(7)---|
|-2-----2-------------|-5---7-7-(7)---(7)---|
|-0-0-0-0--0--0-0-x-x-|-3---5-5-(5)---(5)---|
|---------------------|---------------------|
|
| E E E E +E  E Q       E E E E  E  E  E  E
|---------------------|---------------------|
|-------0-(0)---------|---------------------|
|-----5-------5-------|-----0-------0-------|
|---2-----------2-----|---5------4-----4----|
|-0-------------------|-3-----5-----------5-|
|---------------------|---------------------|


  E5/A                F5/A
    PM|    PM-----|     PM|    PM-----|
  E E E E  E  E E E   E E E E  E  E E E
|-------------------|-------------------|
|-------------------|-------------------|
|-4-----4-----------|-5-----5-----------|
|-2-----2-----------|-3-----3-----------|
|-0-0-0-0--0--0-0-0-|-0-0-0-0--0--0-0-0-|
|-------------------|-------------------|
|
| E E E E +E  E Q     E E E E +E  E Q
|-------------------|-------------------|
|-------0-(0)-------|-------0-(0)-------|
|-----5-------5-----|-----5-------5-----|
|---2-----------2---|---3-----------5---|
|-0-----------------|-0-----------------|
|-------------------|-------------------|


  1.
  E5/A                  C5  D5
    PM|    PM-------|
  E E E E  E  E E S S   Q   E E +Q    +Q
|---------------------|-----------------------||
|---------------------|----------------------o||
|-4-----4-------------|-5---7-7-(7)---(7)-----||
|-2-----2-------------|-5---7-7-(7)---(7)-----||
|-0-0-0-0--0--0-0-x-x-|-3---5-5-(5)---(5)----o||
|---------------------|-----------------------||
|
| E E E E +E  E Q       E E E E  E  E  E  E
|---------------------|-----------------------||
|-------0-(0)---------|----------------------o||
|-----5-------5-------|-----0-------0---------||
|---2-----------2-----|---5------4-----4------||
|-0-------------------|-3-----5-----------5--o||
|---------------------|-----------------------||


  2.
  E5/A                F5/A    G5
    PM|    PM-----|     PM|
  E E E E  E  E E E   E E E E H
|-------------------|-----------------||
|-------------------|---------8-------||
|-4-----4-----------|-5-----5-7-------||
|-2-----2-----------|-3-----3-5-------||
|-0-0-0-0--0--0-0-0-|-0-0-0-0---------||
|-------------------|-----------------||
|
| E E E E +E  E Q     E E E E E E E E
|-------------------|-------------3---||
|-------0-(0)-------|-------0-------3-||
|-----5-------5-----|-----5-----0-----||
|---2-----------2---|---3-----3-------||
|-0-----------------|-0---------------||
|-------------------|-----------------||


 Pre-Chorus
  $
  E5                                  E5  G5   E/Ab
  W          +H..       E   H..       E   H    H
|----------|--------------|-------------|-----------|
|----------|--------------|-------------|-----------|
|-9--------|-(9)--------9-|-9-----------|-----------|
|-9--------|-(9)--------9-|-9-----------|-----------|
|-7--------|-(7)--------7-|-7---------2-|-5----7----|
|-0--------|-(0)--------0-|-0---------0-|-3----4----|


   Chorus
                                    1.
    A5        F5         G5          F5         EmC G5
            PM         PM        PM                                PM
    H.      E E   +Q   E E +Q.   E   Q.   E +E  E E E   +H..       E
||--------------|------------------|------------------|----------------||
||o-------------|------------------|------------------|---------------o||
||--2-----------|------------------|------------0-----|----------------||
||--2---------3-|-(3)----5-(5)-----|-3----3-(3)-2---5-|-(5)------------||
||o-0---------3-|-(3)----5-(5)-----|-3----3-(3)---3-5-|-(5)--------0--o||
||----------0-1-|-(1)--0-3-(3)---1-|-1----1-(1)-----3-|-(3)------------||


  2.
                                                               To Coda
  F5                     G5           A5        F5         G5
                                                                  Gtr V
     PM      PM     ~  PM                     PM         PM        TP
  Q  E E +E  E Q    Q  E E +Q   E E   H.      E E   +Q   E E +Q    Q
|-----------------|-----------------|-------------|--------------------||
|-----------------|-----------------|-------------|--------------------||
|-----------------|-----------------|-2-----------|--------------------||
|-3----3-(3)---3--|------5-(5)------|-2---------3-|-(3)----5-(5)-------||
|-3----3-(3)---3--|-3--0-5-(5)------|-0---------3-|-(3)----5-(5)-------||
|-1--1-1-(1)-1-1--|------3-(3)--3-4-|---------0-1-|-(1)--0-3-(3)--17\--||


   3rd, 4th Verses
    E5/A                F5/A
    Gtr II
      PM|    PM-----|     PM|    PM-----|
    E E E E  E  E E E   E E E E  E  E E E
||--------------------|-------------------|
||o-------------------|-------------------|
||--4-----4-----------|-5-----5-----------|
||--2-----2-----------|-3-----3-----------|
||o-0-0-0-0--0--0-0-0-|-0-0-0-0--0--0-0-0-|
||--------------------|-------------------|
|
|   Gtr I
|   E E E E +E  E Q     E E E E +E  E Q
||--------------------|-------------------|
||o-------0-(0)-------|-------0-(0)-------|
||------5-------5-----|-----5-------5-----|
||----2-----------2---|---3-----------5---|
||o-0-----------------|-0-----------------|
||--------------------|-------------------|


  E5/A                C5  D5
                                    Gtr V
    PM|    PM-----|                  TP
  E E E E  E  E E E   Q   E E +Q     Q
|-------------------|----------------------|
|-------------------|----------------------|
|-4-----4-----------|-5---7-7-(7)----------|
|-2-----2-----------|-5---7-7-(7)----------|
|-0-0-0-0--0--0-0-0-|-3---5-5-(5)---12\----|
|-------------------|----------------------|
|
| E E E E +E  E Q     E E E E  E  E  E  E
|-------------------|----------------------|
|-------0-(0)-------|----------------------|
|-----5-------5-----|-----0-------0--------|
|---2-----------2---|---5------4-----4-----|
|-0-----------------|-3-----5-----------5--|
|-------------------|----------------------|


  E5/A                F5/A
  Gtr II
    PM|    PM-----|     PM|    PM-----|
  E E E E  E  E E E   E E E E  E  E E E
|-------------------|-------------------|
|-------------------|-------------------|
|-4-----4-----------|-5-----5-----------|
|-2-----2-----------|-3-----3-----------|
|-0-0-0-0--0--0-0-0-|-0-0-0-0--0--0-0-0-|
|-------------------|-------------------|
|
| E E E E +E  E Q     E E E E +E  E Q
|-------------------|-------------------|
|-------0-(0)-------|-------0-(0)-------|
|-----5-------5-----|-----5-------5-----|
|---2-----------2---|---3-----------5---|
|-0-----------------|-0-----------------|
|-------------------|-------------------|


  1.
  E5/A                C5  D5
                Gtr V Gtr II        Gtr V
    PM|    PM-| TP                   TP
  E E E E  E  E Q     Q   E E +Q     Q
|-------------------|----------------------||
|-------------------|---------------------o||
|-4-----4-------9\--|-5---7-7-(7)----------||
|-2-----2-------7\--|-5---7-7-(7)----------||
|-0-0-0-0--0--0-----|-3---5-5-(5)---12\---o||
|-------------------|----------------------||
|
| E E E E +E  E Q     E E E E  E  E  E  E
|-------------------|----------------------||
|-------0-(0)-------|---------------------o||
|-----5-------5-----|-----0-------0--------||
|---2-----------2---|---5------4-----4-----||
|-0-----------------|-3-----5-----------5-o||
|-------------------|----------------------||


  2.
                        D.S. al Coda
  E5/A                F5/A    G5
  Gtr II
    PM|    PM-----|     PM|
  E E E E  E  E E E   E E E E H
|-------------------|-----------------||
|-------------------|---------8-------||
|-4-----4-----------|-5-----5-7-------||
|-2-----2-----------|-3-----3-5-------||
|-0-0-0-0--0--0-0-0-|-0-0-0-0---------||
|-------------------|-----------------||
|
| E E E E +E  E Q     E E E E E E E E
|-------------------|-------------3---||
|-------0-(0)-------|-------0-------3-||
|-----5-------5-----|-----5-----0-----||
|---2-----------2---|---3-----3-------||
|-0-----------------|-0---------------||
|-------------------|-----------------||


  &
  F5         G5   E/Ab
  W          H    H
|----------|---------------||
|----------|---------------||
|----------|---------------||
|-3--------|---------------||
|-3--------|-5----7--------||
|-1--------|-3----4--------||
|
| Gtr III
| W          H    Q    Q
|----------|---------------||
|----------|---------[10]--||
|----------|---------------||
|----------|---------------||
|----------|---------------||
|----------|---------------||


 Guitar Solo
  A5                            F5
                                                          PM---|
   W                             H.                       E    E
|-----------------------------|----------------------------------|
|-----------------------------|----------------------------------|
|--2--------------------------|----------------------------------|
|--2--------------------------|--3-------------------------------|
|--0--------------------------|--3------------------------0----3-|
|-----------------------------|--1-------------------------------|
|
|               ~~~
|                     |--3--|
|  Q..     +S   Q.    S  S  S    Q.      T  T  T T E   E  E    E
|-----------------------------|----------------------------------|
|-13b17---(13)-13----10h13p10-|-12b13---10h12p10s8-8h[10]-8b10-8-|
|-----------------------------|----------------------------------|
|-----------------------------|----------------------------------|
|-----------------------------|----------------------------------|
|-----------------------------|----------------------------------|
|
| Gtr IV
|  W                             W
|-----------------------------|----------------------------------|
|-----------------------------|----------------------------------|
|-----------------------------|----------------------------------|
|-----------------------------|----------------------------------|
|-----------------------------|----------------------------------|
|-----------------------------|----------------------------------|


  Csus4   C                  G5
                                                     PM----|
   Q.      E  +H               H.                    E     E
|--------------------------|----------------------------------|
|--6-------5--(5)----------|----------------------------------|
|--5-------5--(5)----------|----------------------------------|
|--5-------5--(5)----------|---5------------------------------|
|-(3)-----(3)-(3)----------|---5------------------------------|
|--------------------------|---3---------------------3-----4--|
|
|  ~~~                   ~~~~~~~~~             ~~
| +Q    E  E   E   E  E  E    +E   T  T  T  T  H     Q
|------10-12--13--17-13-15-|-(15)-13h15p13--------------------|
|-(8)----------------------|---------------13-15----20b22=====|
|--------------------------|----------------------------------|
|--------------------------|----------------------------------|
|--------------------------|----------------------------------|
|--------------------------|----------------------------------|
|
|                        ~~~~~~~~~             ~~
|  Q    E  E   E   E  E  E    +E   T  T  T  T  H     Q
|--------------------------|----------------------------------|
|------10-13--15--15-13-15-|-(15)-13--------------------------|
|--------------------------|---------14p12-14p12--------------|
|--------------------------|----------------------------------|
|--------------------------|----------------------------------|
|--------------------------|----------------------------------|


  A5
   W
|--------------------------------------|
|--------------------------------------|
|--2-----------------------------------|
|--2-----------------------------------|
|--0-----------------------------------|
|--------------------------------------|
|
|      ~~~~~
|            |---3---|
|  E.  S  E  S   S   S  Q.      +S   S
|----------------------19b20r==(19)p17-|
|-20--20-20-20r(20)p17-----------------|
|--------------------------------------|
|--------------------------------------|
|--------------------------------------|
|--------------------------------------|


  F5
   H.                                E     E
|--------------------------------------------------|
|--------------------------------------------------|
|--------------------------------------------------|
|--3-----------------------------------------------|
|--3---------------------------------3s====5-------|
|--1-----------------------------------------------|
|
|                                 ~~
|                        |--3--|           |--3--|
|  T  T  E.  a  E  S  S  S  S  S  E  S  S  S  S  S
|-19p17s15--15s17----------------------------------|
|-----------------20p17-------------17----17h18p17-|
|-----------------------20p19p17-19----19----------|
|--------------------------------------------------|
|--------------------------------------------------|
|--------------------------------------------------|


  D5
                                                              PM----|
   H.                                                         E     E
|---------------------------------------------------------------------|
|---------------------------------------------------------------------|
|--7------------------------------------------------------------------|
|--7------------------------------------------------------------------|
|--5------------------------------------------------------------------|
|-------------------------------------------------------------1-----3-|
|
|  |--3--|              |------6-------|  |-----3------|
|  S  S  S  T  T  T  T  S  S  S  S  S  S  S      +S   +S   E  Q
|---------------------------------------------------------------------|
|-18p17----17h18p17h18----17---------------------------------20b24====|
|-------19-------------19----19-16h19p16-19b21==(19)r(19)-17----------|
|---------------------------------------------------------------------|
|---------------------------------------------------------------------|
|---------------------------------------------------------------------|


  G5                        E/Ab
   H                         H
|----------------------------------------------------|
|----------------------------------------------------|
|----------------------------------------------------|
|----------------------------------------------------|
|--5-------------------------7-----------------------|
|--3-------------------------4-----------------------|
|
|  S  +S   S  S  S  S  S  S  S  S  S  S  S  S  S  S
|----------------------------------------------------|
|-20r(20)-17h20p17-20-20----17-----------------------|
|------------------------20----20-19p17h19----17-18--|
|------------------------------------------19--------|
|----------------------------------------------------|
|----------------------------------------------------|


  A5                                    F5
                                   PM
   H.                              E     E
|------------------------------------------------|
|------------------------------------------------|
|--2---------------------------------------------|
|--2-------------------------------------3-------|
|--0-------------------------------------3-------|
|----------------------------------0-----1-------|
|
|                    ~~~~~~~
|                                        |--3--|
|  S   S  S  S   E   E  +E.  T  T  T  S. S  S  S
|------------------------------------------------|
|------------------------------------------------|
|-19--17-17--------------------------17h19p17----|
|-----------19-[19]-19-(19)-17h19p17----------17-|
|------------------------------------------------|
|------------------------------------------------|
|
| Gtr IV
|  W
|------------------------------------------------|
|------------------------------------------------|
|------------------------------------------------|
|------------------------------------------------|
|------------------------------------------------|
|------------------------------------------------|


  F5
                                   PM
   H..                             E
|----------------------------------------|
|----------------------------------------|
|----------------------------------------|
|--3-------------------------------------|
|--3-------------------------------------|
|--1-------------------------------1-----|
|
|                   ~~~~~~~
|  S    S  E  a  E  E  +Q    S  S  S  S
|---------------------------17h19-17h19--|
|----------------------------------------|
|-19p==17----19s21-19-(19)---------------|
|---------17-----------------------------|
|----------------------------------------|
|----------------------------------------|
|
|  H                    Q    S  S  S  S
|----------------------------------------|
|---------------------------17h18p17-----|
|------------------------------------19--|
|----------------------------------------|
|----------------------------------------|
|----------------------------------------|


  C                                   G5
                                 PM
   Q.      E        Q            E     E
|-------------------------------------------------|
|--5-------5--------5-----------------------------|
|--5-------5--------5-----------------------------|
|--5-------5--------5------------------5----------|
|-(3)-----(3)------(3)-----------------5----------|
|--------------------------------0-----3----------|
|
|  ~~~~~~
|                                      |---3----|
|  H                S   S  S  S  E     S  S     S
|-22b24------------20--22-17-20-20----------------|
|-------------------------------------18-20----17-|
|-------------------------------------------------|
|-------------------------------------------------|
|-------------------------------------------------|
|-------------------------------------------------|
|
|  Q..         +S   S   S  S  S  S  S  S     S
|-19b21r======(19)-17--19----17-17----------------|
|-------------------------18-------18-------17----|
|-------------------------------------19----------|
|-------------------------------------------------|
|-------------------------------------------------|
|-------------------------------------------------|


                        ~~~~
  +H                    Q     Q
|----------------------------------------|
|----------------------------------------|
|----------------------------------------|
|-(5)------------------------------------|
|-(5)-------------------3-----0----------|
|-(3)------------------------------------|
|
|  Q.           E      +Q    +E     S  S
|--------------22b24==(22)--(22)r\-------|
|-18----------------------------------17-|
|----------------------------------19----|
|----------------------------------------|
|----------------------------------------|
|----------------------------------------|
|
|      ~~~
|  S   E.  +E   E      +Q    +E     E
|----------------------------------------|
|--------------22b24==(22)--(22)r\-------|
|-17--19--(19)---------------------------|
|----------------------------------------|
|----------------------------------------|
|----------------------------------------|


  A5                                     F5
                                   PM
   Q.              Q.              E      E
|----------------------------------------------|
|----------------------------------------------|
|--2---------------2---------------------------|
|--2---------------2----------------------3----|
|--0---------------0---------------0------3----|
|-----------------------------------------1----|
|
|               ~~~~~~~~~~~
|  S  S  S  S   Q      +E   E     +S   S  S  S
|----------------------------------------------|
|-------------------------------------17-------|
|-19p17p16-----------------16b17-(16)----19p17-|
|----------19-[19]----(19)---------------------|
|----------------------------------------------|
|----------------------------------------------|


                         G5
                  PM
   Q              E      E  +Q     Q
|-----------------------------------------|
|-----------------------------------------|
|-----------------------------------------|
|--3---------------------5--(5)-----------|
|--3---------------------5--(5)-----------|
|--1--------------0------3--(3)---17\-----|
|
|                     ~~~
|  S  E     +S   +S   E.    +Q     Q
|-----------------------------------------|
|----20b22r(20)-(20)--------------[8]b10--|
|-16-----------------19----(19)\----------|
|-----------------------------------------|
|-----------------------------------------|
|-----------------------------------------|


  C5      G/B                        G5
   PM--------------------------------------------|
   E  E E E      E        E           E           E
|---------------------------------------------------------|
|---------------------------------------------------------|
|---------------------------------------------------------|
|--5------5-----------------------------------------------|
|--3--3-3-2------2--------0-----------5-----------5-------|
|-------------------------------------3-----------3-------|
|
|  ~~~        PM       T              T        T
|         |-3-|  |--3--|                          |--3--|
| +Q.     S S S  S  S  S  T  T  T  T  T  T  T  T  S  S  S
|---------------10h12-15p13p12p10h13----------------------|
|-(8)-----8p5------------------------15p10h12-15p13p10----|
|-------------0----------------------------------------11p|
|---------------------------------------------------------|
|---------------------------------------------------------|
|---------------------------------------------------------|
|
| Gtr IV
|  W
|---------------------------------------------------------|
|---------------------------------------------------------|
|---------------------------------------------------------|
|---------------------------------------------------------|
|---------------------------------------------------------|
|---------------------------------------------------------|


  A5                                          A5        G5
  E           E          Q                    Q         Q
|----------------------------------------------------------------------||
|----------------------------------------------------------------------||
|-2-------------------------------------------2------------------------||
|-2-------------------------------------------2---------5--------------||
|-0-------------------------------------------0---------5--------------||
|-------------------------------------------------------3--------------||
|
|          T             T          T
|                                                               |-3-|
| T  T  T  T  T  T T  T  T T  T  T  T  T  T T T T T T E T T T T S S S
|----------------------------------------------------------------------||
|-------------------------------------------------------5--------------||
|-9h10h12-14p12p10p9--------------------------4h5h7p5-5---5-4----------||
|--------------------12h14-9h10h12-14p12p10p9-----------------7p5p3----||
|-------------------------------------------------------------------7--||
|----------------------------------------------------------------------||
|
| H                                           T T T T E Q
|----------------------------------------------------------------------||
|----------------------------------------------------------------------||
|----------------------------------------------------------------------||
|---------------------------------------------4h5h7p5-5----------------||
|----------------------------------------------------------------------||
|----------------------------------------------------------------------||


 Interlude
                                                        G5
  PM------------------------------------------------|
  E E E E E E E E   E E E E E E E E   E E E E E E E E   W
|-----------------|-----------------|-----------------|------|
|-----------------|-----------------|-----------------|------|
|-----------------|-----------------|-----------------|------|
|-----------------|-----------------|-----------------|-5----|
|-3-----2-----3---|-3-----2-----3---|-3-----2-----3---|-5----|
|---1-1---1-1---1-|---1-1---1-1---1-|---3-3---3-3---3-|-3----|


                                                        G5   E/Ab
  PM------------------------------------------------|
  E E E E E E E E   E E E E E E E E   E E E E E E E E   H    H
|-----------------|-----------------|-----------------|-----------||
|-----------------|-----------------|-----------------|-----------||
|-----------------|-----------------|-----------------|-----------||
|-----------------|-----------------|-----------------|-----------||
|-3-----2-----3---|-3-----2-----3---|-3-----2-----3---|-5----7----||
|---1-1---1-1---1-|---1-1---1-1---1-|---3-3---3-3---3-|-3----4----||


 Out-Chorus-Solo
  A5        F5           G5
          PM           PM                 PM
  H.      E E   +Q     E  E +Q.           E
|-------------|-----------------------------|
|-------------|-----------------------------|
|-2-----------|-----------------------------|
|-2---------3-|-(3)-------5-(5)-------------|
|-0---------3-|-(3)-------5-(5)-------------|
|---------0-1-|-(1)----1--3-(3)-----------1-|
|
| Gtr III
| W              Q     E  E  E   E     E  E
|-------------|-----------------------------|
|-------------|-----------------------------|
|-------------|-----------------------------|
|-------------|-------------10--12b14-10----|
|-------------|------/12-12--------------12-|
|-------------|-----------------------------|


  F5              G5
   H..             E   +W
|--------------------|--------------|
|--------------------|--------------|
|--------------------|--------------|
|--3---------------5-|-(5)----------|
|--3---------------5-|-(5)----------|
|--1---------------3-|-(3)----------|
|
|                             ~~~
|  E    Q  Q   Q   E    E. S  H.
|--------------------|--------------|
|--------------------|--------------|
|-10---10--9---------|-12p10--------|
|-------------12--10-|-------12-----|
|--------------------|--------------|
|--------------------|--------------|


  A5        F5           G5
          PM           PM                   PM
  H.      E E   +Q     E  E +Q.             E
|-------------|-------------------------------|
|-------------|-------------------------------|
|-2-----------|-------------------------------|
|-2---------3-|-(3)-------5-(5)---------------|
|-0---------3-|-(3)-------5-(5)---------------|
|---------0-1-|-(1)----1--3-(3)-------------1-|
|
| W              Q     E  E  E   E     +E   E
|-------------|-------------------------------|
|-------------|-------------------------------|
|-------------|-------------------------------|
|-------------|-------------10--12b14r(12)p10-|
|-------------|------/12-12-------------------|
|-------------|-------------------------------|


  F5     G5                C5     G5
                                PM
   Q.      E   +H           Q   E E +H
|------------------------|--------------------|
|------------------------|--------------------|
|------------------------|--5-----------------|
|--3-------5---(5)-------|--5-----5-(5)-------|
|--3-------5---(5)-------|--3-----5-(5)-------|
|--1-------3---(3)-------|------0-3-(3)-------|
|
|                           ~~~
|  Q   E   E   +E  E E E    Q.    E  Q    Q
|------------------------|--------------------|
|------------------------|--------------------|
|--------[10]-(10)-9s7---|-[5]------[5]--[7]--|
|-10---------------------|--------------------|
|------------------------|--------------------|
|------------------------|--------------------|


  A5              F5           G5
                PM           PM                 PM
   H.           E E   +Q     E  E +Q.           E
|-------------------|-----------------------------|
|-------------------|-----------------------------|
|--2----------------|-----------------------------|
|--2--------------3-|-(3)-------5-(5)-------------|
|--0--------------3-|-(3)-------5-(5)-------------|
|---------------0-1-|-(1)----1--3-(3)-----------1-|
|
|          ~~~                               PM|
|  Q.      Q.   Q      Q     E  E  E   E     E  E
|-------------------|-----------------------------|
|-------------------|-----------------------------|
|-[7]b9---[7]-------|-----------------------------|
|-------------------|-------------10--12b14-------|
|-------------------|------/12-12-----------------|
|-------------------|-----------------------13-13-|


  F5                     G5
   H..                    E   +W
|---------------------------|---------------|
|---------------------------|---------------|
|---------------------------|---------------|
|--3----------------------5-|-(5)-----------|
|--3----------------------5-|-(5)-----------|
|--1----------------------3-|-(3)-----------|
|
|                                     ~~~
|  E    E  E  E  +E   Q   E    E.  S  H.
|---------------------------|---------------|
|---------------------------|---------------|
|---------------------------|---------------|
|-15---15-15-14-(14)-12--10-|-12--10--------|
|---------------------------|--------10-----|
|---------------------------|---------------|


  A5            F5          G5          F5                             G5
              PM          PM        PM
   H.         E E    +Q   E E +Q.   E    H..                            E
|-----------------|-------------------|-----------------------------------|
|-----------------|-------------------|-----------------------------------|
|--2--------------|-------------------|-----------------------------------|
|--2------------3-|--(3)----5-(5)-----|--3------------------------------5-|
|--0------------3-|--(3)----5-(5)-----|--3------------------------------5-|
|-------------0-1-|--(1)--1-3-(3)---1-|--1------------------------------3-|
|
|       ~~~~~~~~~~~~~~~~~
|  Q    H.           +H        H         E   E  E  E  E  T  T  T  T  E  E
|-----------------|-------------------|-----------------------------------|
|-----------------|-------------------|-----------------------------------|
|-----------------|-------------------|-17-----17-14-16-14h16p14----------|
|-10--------------|-------------------|--------------------------17s19-17-|
|------12---------|-(12)--------------|-----------------------------------|
|-----------------|-------------------|-----------------------------------|


  +W
|------------------------------------------|
|------------------------------------------|
|------------------------------------------|
|-(5)--------------------------------------|
|-(5)--------------------------------------|
|-(3)--------------------------------------|
|
|                        |--3---|
|  S  S  S  S  E  E  E  +S   S  S  E  E
|------------------------------------------|
|------------------------------------------|
|-17p16-------16---------------------------|
|-------19-17----17s15-(15)p14----14-------|
|------------------------------17----17s===|
|------------------------------------------|


  A5         F5         G5             F5    G5
           PM         PM          PM
   H.      E E   +Q   E E  +Q.    E     Q.   E +H
|--------------|---------------------|----------------------------|
|--------------|---------------------|----------------------------|
|--2-----------|---------------------|----------------------------|
|--2---------3-|-(3)----5--(5)-------|--3----5-(5)----------------|
|--0---------3-|-(3)----5--(5)-------|--3----5-(5)----------------|
|----------0-1-|-(1)--1-3--(3)----1--|--1----3-(3)----------------|
|
|                       \3        |
|  ~~~                                  ~~~
|  W              Q   E H        +E     H.           S     +S   E
|--------------|---------------------|-10-------------------------|
|--------------|---------------------|--------------12b13-(12)-12-|
|--------------|---------------------|----------------------------|
|--------------|---------------------|----------------------------|
|-12-----------|---------------------|----------------------------|
|--------------|--------0--------(0)-|----------------------------|


  C5                     G5
                       PM
   Q                   E E  +H
|-----------------------------------------|
|-----------------------------------------|
|--5--------------------------------------|
|--5---------------------5--(5)-----------|
|--3---------------------5--(5)-----------|
|----------------------0-3--(3)-----------|
|
|          |---3----|
|  E      +S   +S   S  Q    +E   E  E  E
|-----------------------------------------|
|-12b13==(12)r(12)p10-----------15-13-15--|
|---------------------12---(12)-----------|
|-----------------------------------------|
|-----------------------------------------|
|-----------------------------------------|


  A5            F5           G5
              PM           PM          PM
   H.         E E    +Q    E E +Q.     E
|-----------------|--------------------------|
|-----------------|--------------------------|
|--2--------------|--------------------------|
|--2------------3-|--(3)-----5-(5)-----------|
|--0------------3-|--(3)-----5-(5)-----------|
|-------------0-1-|--(1)---1-3-(3)-----1-----|
|
|  ~~~~~~~~~~~~~~~~~~~~~~~
|  W                 +H         Q   E  E
|-----------------|-------------------22b24==|
|-15b17===========|=(15)r--------------------|
|-----------------|--------------------------|
|-----------------|--------------------------|
|-----------------|--------------------------|
|-----------------|--------------------------|


  F5                         G5
    H..                       E       +W
|----------------------------------|-------------------|
|----------------------------------|-------------------|
|----------------------------------|-------------------|
|---3-------------------------5----|--(5)--------------|
|---3-------------------------5----|--(5)--------------|
|---1-------------------------3----|--(3)--------------|
|
|                                                ~~~
|  +Q.     E       +Q    +E   S  S    +E   S  S  H.
|-(22)r---22pb25==(22)r=(22)-20h22-|-(22)-22p17--------|
|----------------------------------|------------20-----|
|----------------------------------|-------------------|
|----------------------------------|-------------------|
|----------------------------------|-------------------|
|----------------------------------|-------------------|


  A5         F5          G5
           PM          PM            PM
   H.      E E    +Q   E  E  +Q.     E
|--------------|--------------------------|
|--------------|--------------------------|
|--2-----------|--------------------------|
|--2---------3-|--(3)-----5--(5)----------|
|--0---------3-|--(3)-----5--(5)----------|
|----------0-1-|--(1)--1--3--(3)-----1----|
|
|                        Gtr V      Gtr III
|  ~~~~~~~~~~~~~~~~~~~    TP
|  W              +Q.     Q.      E  S  S
|-17-----------|-(17)---------------------|
|--------------|-----------------------13-|
|--------------|--------------------14----|
|--------------|---------15\--------------|
|--------------|---------15\--------------|
|--------------|--------------------------|


  F5       G5
   Q.       E    +H
|----------------------------------|
|----------------------------------|
|----------------------------------|
|--3--------5----(5)---------------|
|--3--------5----(5)---------------|
|--1--------3----(3)---------------|
|
|  S  E. E  S  S  E  S  S  E  S  S
|-12h13p12-------------------------|
|----------17p13h15p13h15h17-13h15-|
|----------------------------------|
|----------------------------------|
|----------------------------------|
|----------------------------------|


  C5                   G5
                    PM
    Q               E  E   +H
|--------------------------------------------|
|--------------------------------------------|
|---5----------------------------------------|
|---5------------------5---(5)---------------|
|---3------------------5---(5)---------------|
|-------------------0--3---(3)---------------|
|
|  +E   T  T  T  T  E  S S  S  S S S E S S
|--------------------------------------------|
|-(15)-13h15p13s10----------5----------------|
|------------------12\-5-7-----8-7-5-7-5-7s==|
|--------------------------------------------|
|--------------------------------------------|
|--------------------------------------------|


  A5        F5         G5            F5                     G5
          PM         PM          PM
  H.      E E   +Q   E E +Q.     E   H..                     E
|-------------|--------------------|---------------------------------|
|-------------|--------------------|---------------------------------|
|-2-----------|--------------------|---------------------------------|
|-2---------3-|-(3)----5-(5)-------|-3-----------------------5-------|
|-0---------3-|-(3)----5-(5)-------|-3-----------------------5-------|
|---------0-1-|-(1)--1-3-(3)-----1-|-1-----------------------3-------|
|
| ~~~~~~~~~~~~~~~~~~                     ~~~~~~~
|                                                            |--3--|
| W             +Q.    E +E  E E E   S   E. +Q   E   E  +E   S  S  S
|-------------|--------------------|---------------/13-(13)-10----10-|
|-------------|--------------------|---------------------------13----|
|-9-----------|-(9)----9-(9)-5-5-5-|-5---7--(7)--5-------------------|
|-------------|--------------------|---------------------------------|
|-------------|--------------------|---------------------------------|
|-------------|--------------------|---------------------------------|


  +W
|----------------------------------------------------------------*|
|----------------------------------------------------------------*|
|----------------------------------------------------------------*|
|-(5)------------------------------------------------------------*|
|-(5)------------------------------------------------------------*|
|-(3)------------------------------------------------------------*|
|
|  |-----5-----|  |------6------| |-----6------|  |-----6------|
|  S  S  S  S  S  S  S  S  S S  S S  S S  S  S S  S S  S S  S  S
|----------------------------------------------------------------*|
|-13p10-13-13p10----10-------------------------------------------*|
|----------------12----12p10s9-10-9----9-------------------------*|
|-----------------------------------12---12p10p9-10p9----9-------*|
|-----------------------------------------------------12---12p10-*|
|----------------------------------------------------------------*|


Duration Legend
---------------
W - whole; H - half; Q - quarter; E - 8th; S - 16th; T - 32nd; X - 64th; a - acciaccatura
+ - note tied to previous; . - note dotted; .. - note double dotted
Uncapitalized letters represent notes that are staccato (1/2 duration)
Irregular groupings are notated above the duration line
Duration letters will always appear directly above the note/fret number it represents the
duration for.  Duration letters with no fret number below them represent rests.  Multi-
bar rests are notated in the form Wxn, where n is the number of bars to rest for.  Low
melody durations appear below the staff

Tablature Legend
----------------
 h   - hammer-on
 p   - pull-off
 b   - bend
 pb  - pre-bend
 r   - bend release (if no number after the r, then release immediately)
 /\  - slide into or out of (from/to "nowhere")
 s   - legato slide
 S   - shift slide
  - natural harmonic
[n]  - artificial harmonic
n(n) - tapped harmonic
 ~   - vibrato
 tr  - trill
 T   - tap
 TP  - trem. picking
 PM  - palm muting
\n/  - tremolo bar dip; n = amount to dip
 \n  - tremolo bar down
 n/  - tremolo bar up
/n\  - tremolo bar inverted dip
 =   - hold bend; also acts as connecting device for hammers/pulls
 <>  - volume swell (louder/softer)
 x   - on rhythm slash represents muted slash
 o   - on rhythm slash represents single note slash

Misc Legend
-----------
 |  - bar
||  - double bar
||o - repeat start
o|| - repeat end
*|  - double bar (ending)
 :  - bar (freetime)
 $  - Segno
 &  - Coda
Tempo markers -  = BPM(8/16=s8/s16), where s8 = swing 8ths, s16 = swing 16ths

            
            
Suggest correction
Creating personal tab
Creating personal tab
You can edit any tab online and save it as your Personal.

You can edit, replace or remove any tab part or add personal notes – all changes will be seen only by you.

Personal tabs can be accessed anytime from any device, even offline.
Learn more »
comments
print report bad tab
2 comments total.
0 reply
Dcforlife25 10 Dec 04, 2009 06:14 PM

Tuning? and good tab by the way

0 reply
Spectre13 90 Aug 11, 2015 10:23 PM

Excellent

guest
You may want to rate the tab now too:
select rating
Wanna post a correction for this tab? Suggest correction