Oops, an error
Loading. Please wait.

In My Dreams bass

version 2
version 2

Whole song

Interactive

by Dokken
1,939 views 3 this week
no commentswrite comment
1 2 3 4 5
1 last vote to show rating
add to favorites
×
Save as Personal and add changes to this tab that will be seen only by you. Learn more ›
×
You can save this tab as Personal to edit and correct it or add notes. All changes will be seen only by you. Learn more »
launch autoscroll
font size
0
reset
guitar tuner
backing track
0:00
0:00
edit
Autoscroll
slow
fast
+/-
esc
set tempo
stop
Artist: Dokken
Album: Under Lock and Key
Song: In My Dreams

Tuning: E Flat

In my dreams, it's still the same; your love is strong and still remains…

Intro

F#-|--------------|-----------------|-------------------|-----------------|
C#-|--------------|-----------------|-------------------|-----------------|
G#-|-------5-7--7-|-7-7-7-7-7-7-7-7-|-3-3-3-5-5-5-7-7-7-|-7-7-7-7-7-7-7-7-|
D#-|-0-5H7--------|-----------------|-------------------|-----------------|

F#-|---------------------|
C#-|---------------------|
G#-|-3-3-3-5-5-5-5-------|
D#-|---------------3-5-5-|


Verse 1

F#-|---------------|---------------|---------------|-----------|
G#-|---------------|---------------|---------------|-----------|
C#-|-5-7-----------|-5-7-----------|-5-7-----------|-3--7--5-5-|
D#-|-----0-0-0-0-0-|-----0-0-0-0-0-|-----0-0-0-0-0-|-----------|

Toss and turn all night in the sheets but I can't sleep

F#-|---------------|---------------|---------------|-----------|
G#-|---------------|---------------|---------------|----5------|
C#-|-5-7-----------|-5-7-----------|-5-7-----------|-3-----5-5-|
D#-|-----0-0-0-0-0-|-----0-0-0-0-0-|-----0-0-0-0-0-|-----------|

Night after night, don't know what it means, in my dreams

F#-|-----------------------------------------|
G#-|-----------------------------------------|
C#-|-------------------------5-5-5-5---------|
D#-|-0-0-0-0-0-0-0-0-0-0-0-0---------5-5-5-5-|

What can I say or do, you won't come back, we're through

F#-|-------------------------last-notes-ring-|
G#-|-----------------------------------------|
C#-|-------------------------5-~-~-~-~-------|
D#-|-0-0-0-0-0-0-0-0-0-0-0-0---------5-~-~-~-|

I've realized too late, that baby your love has turned away


Chorus 1 (REPEAT X4 w/ ending)

F#-|------------------| |------------|-----------------------------|
G#-|------------------| |------------|-----------------------------|
C#-|-----0-3--2-0-----| |-5--3--5--7-|-----------------3-3-5-5-7-7-|
D#-|-0-3----------3-0-| |------------|-0-0-0-0-0-0-0-0-------------|

In my dreams, it's still the same; your love is strong and still remains
In my dreams, you're still by me; just the way it used to be
Verse 2

F#-|---------------|---------------|---------------|-----------|
G#-|---------------|---------------|---------------|-----------|
C#-|-5-7-----------|-5-7-----------|-5-7-----------|-3--7--5-5-|
D#-|-----0-0-0-0-0-|-----0-0-0-0-0-|-----0-0-0-0-0-|-----------|

Calling your name, but you're turning away, please don't leave.

F#-|---------------|---------------|---------------|-----------|
G#-|---------------|---------------|---------------|----5------|
C#-|-5-7-----------|-5-7-----------|-5-7-----------|-3-----5-5-|
D#-|-----0-0-0-0-0-|-----0-0-0-0-0-|-----0-0-0-0-0-|-----------|

Running in circles, waiting to see, you in my dreams.

F#-|-----------------------------------------|
G#-|-----------------------------------------|
C#-|-------------------------5-5-5-5---------|
D#-|-0-0-0-0-0-0-0-0-0-0-0-0---------5-5-5-5-|

What can I say or do, you won't come back, we're through

F#-|-------------------------last-notes-ring-|
G#-|-----------------------------------------|
C#-|-------------------------5-~-~-~-~-------|
D#-|-0-0-0-0-0-0-0-0-0-0-0-0---------5-~-~-~-|

I've realized too late that baby, your love has turned away

Chorus 2 (REPEAT X4 w/ ending)

F#-|------------------|-----|
G#-|------------------|-----|
C#-|-----0-3--2-0-----|--5~-|
D#-|-0-3----------3-0-|-----|

In my dreams, it's still the same; your love is strong and still remains
In my dreams, you're still by me; just the way it used to be

Solo  

F#-|----Repeat-4X----|--last-one-|---------|---------|
G#-|-----------------|-----------|---------|---------|
C#-|-----0-3-2-0-----|---0-3--5~-|-----5---|-----5---|
D#-|-0-3--------3-0--|-0-3-------|-0-0---5-|-0-0---5-|


F#-|-------------------------|--R-----------|-------------------|
G#-|-------------------------|-----E--------|-------------------|
C#-|-----------------5---5---|--------S-----|-------------------|
D#-|-0-0-0-0-0-0-0-0---5---5-|-----------T--|-0-0-0-0-0-0-3-5-5-|


Chorus (REPEAT X3 w/ ending on 4th)

F#-|------------------|--------------|
G#-|------------------|--------------|
C#-|-----0-3--2-0-----|-----0-3--5---|
D#-|-0-3----------3-0-|-0-3--------5-|

In my dreams, it's still the same; your love is strong and still remains
In my dreams, you're still by me; just the way it used to be


Chorus (1st vocal line no music)

In my dreams, it's still the same; your love is strong and still remains

F#-|------------------|--------------|
G#-|------------------|--------------|
C#-|-----0-3--2-0-----|-----0-3--5---|
D#-|-0-3----------3-0-|-0-3--------5-|

In my dreams, you’ll always be, in my heart and in my dreams.


Chorus

F#-|-----------------|-----------------|-----------------|------------|
G#-|-----------------|-----------------|-----------------|------------|
C#-|-----0-3-2-0-----|-----0-3-2-0-----|-----0-3-2-0-----|----0-3-5---|
D#-|-0-3---------3-0-|-0-3---------3-0-|-0-3---------3-0-|-0-3------5-|

In my dreams, it's still the same        In my dreams, just the way it used to be
In my dreams, you're still by me         In my dreams

Chorus

F#-|-----------------|-----------------|-----------------|------------|
G#-|-----------------|-----------------|-----------------|------------|
C#-|-----0-3-2-0-----|-----0-3-2-0-----|-----0-3-2-0-----|----0-3-5---|
D#-|-0-3---------3-0-|-0-3---------3-0-|-0-3---------3-0-|-0-3------5-|

In my dreams, what can I say?            And in my dreams, you’ll always be  
In my dreams, you’re still by me         In my dreams, you’ll always be


Chorus

F#-|-----------------|-----------------|-----------------|-------------|
G#-|-----------------|-----------------|-----------------|-------------|
C#-|-----0-3-2-0-----|-----0-3-2-0-----|-----0-3-2-0-----|-----0-3-5---|
D#-|-0-3---------3-0-|-0-3---------3-0-|-0-3---------3-0-|-0-3-------5-|

In my dreams, your love is strong        In my dreams 
In my dreams, it's still the same        In my dreams (Fade out)

Tabbed by Psweeney4
Suggest correction
Creating personal tab
Creating personal tab
You can edit any tab online and save it as your Personal.

You can edit, replace or remove any tab part or add personal notes – all changes will be seen only by you.

Personal tabs can be accessed anytime from any device, even offline.
Learn more »
Give kudos to tab author, rate the tab!
1 2 3 4 5
comments
print report bad tab
guest
You may want to rate the tab now too:
select rating
Wanna post a correction for this tab? Suggest correction