Oops, an error
Loading. Please wait.

Kiss Of Death bass

version 1
version 1

Whole song

Interactive

by Dokken
1,390 views 6 this week
no commentswrite comment
1 2 3 4 5
3 more votes to show rating
add to favorites
×
Save as Personal and add changes to this tab that will be seen only by you. Learn more ›
×
You can save this tab as Personal to edit and correct it or add notes. All changes will be seen only by you. Learn more »
launch autoscroll
font size
0
reset
guitar tuner
backing track
0:00
0:00
edit
Autoscroll
slow
fast
+/-
esc
set tempo
stop
Author
Difficulty
Artist: Dokken
Album: Back for the Attack
Song: Kiss of Death

Tuning: Standard


Intro

G-|-----------------|-------------------------------------------|
D-|-----------------|-------------------------------------------|
A-|-77---7-7-7---77-|-7777-7777-7777-7777-7777-7777-7777-7777-7-|
E-|-----------------|-------------------------------------------|

G-|----------------|----------------|----------------|----------|
D-|------------5---|------------5---|------------5---|----------|
A-|-7-5--5-5-7---7-|-5-3--3-3-5---7-|-7-5--5-5-7---7-|-5-3----5-|
E-|----------------|----------------|----------------|----------|


Verse 1

G-|---------|---------|-----------|---------|---------|------------|
D-|---------|---------|-----------|---------|---------|------------|
A-|-------7-|-------7-|-----------|-------7-|-------7-|------------|
E-|-0-0-0---|-0-0-0---|-0-0-0-8-7-|-0-0-0---|-0-0-0---|-0-0-0-8-10-|

G-|---------|---------|-----------|---------|---------|------------|
D-|---------|---------|-----------|---------|---------|------------|
A-|-------7-|-------7-|-----------|-------7-|-------7-|------------|
E-|-0-0-0---|-0-0-0---|-0-0-0-8-7-|-0-0-0---|-0-0-0---|-0-0-0-8-10-|

G-|---------|---------|-----------|---------|---------|------------|
D-|---------|---------|-----------|---------|---------|------------|
A-|-------7-|-------7-|-----------|-------7-|-------7-|------------|
E-|-0-0-0---|-0-0-0---|-0-0-0-8-7-|-0-0-0---|-0-0-0---|-0-0-0-8-10-|

A brief encounter like wind through the trees, it came so suddenly

G-|---------|---------|-----------|---------|---------|------------|
D-|---------|---------|-----------|---------|---------|------------|
A-|-------7-|-------7-|-----------|-------7-|-------7-|------------|
E-|-0-0-0---|-0-0-0---|-0-0-0-8-7-|-0-0-0---|-0-0-0---|-0-0-0-8-10-|

But then it was gone like it had never been how could I have ever seen?

G-|---------|---------|---------|---------|---------|---------|
D-|---------|---------|---------|---------|---------|---------|
A-|-0-0-0-0-|-0-0-0-0-|-0-0-0-0-|-0-0-0-0-|-0-0-0-0-|-0-0-0-0-|
E-|---------|---------|---------|---------|---------|---------|

A lost heart, will take your soul 

G-|---------|---------|-----------|---------|---------|------------|
D-|---------|---------|-----------|---------|---------|------------|
A-|-------7-|-------7-|-----------|-------7-|-------7-|------------|
E-|-0-0-0---|-0-0-0---|-0-0-0-8-7-|-0-0-0---|-0-0-0---|-0-0-0-8-10-|

How could I have known, how could I have known?


Chorus

G-|-----------------|----------------|----------------|----------------|----------|
D-|-----------------|------------5---|------------5---|------------5---|----------|
A-|-5-5-5-5---------|-7-5--5-5-7---7-|-5-3--3-3-5---7-|-7-5--5-5-7---7-|-5-3----5-|
E-|---------7-7-7-7-|----------------|----------------|----------------|----------|

As she took me in her arms and brought me to an end 
with the kiss of death, the kiss of death 

she promised paradise as she lied upon her bed 
like a fallen angel with the devil's charm 
she promised paradise with the kiss of death


Verse 2

G-|---------|---------|-----------|---------|---------|------------|
D-|---------|---------|-----------|---------|---------|------------|
A-|-------7-|-------7-|-----------|-------7-|-------7-|------------|
E-|-0-0-0---|-0-0-0---|-0-0-0-8-7-|-0-0-0---|-0-0-0---|-0-0-0-8-10-|

G-|---------|---------|-----------|---------|---------|------------|
D-|---------|---------|-----------|---------|---------|------------|
A-|-------7-|-------7-|-----------|-------7-|-------7-|------------|
E-|-0-0-0---|-0-0-0---|-0-0-0-8-7-|-0-0-0---|-0-0-0---|-0-0-0-8-10-|

I tried to stop as she held out her hand but the fire was burning inside

G-|---------|---------|-----------|---------|---------|------------|
D-|---------|---------|-----------|---------|---------|------------|
A-|-------7-|-------7-|-----------|-------7-|-------7-|------------|
E-|-0-0-0---|-0-0-0---|-0-0-0-8-7-|-0-0-0---|-0-0-0---|-0-0-0-8-10-|

She knew what I wanted, and she gave it and more but now I must pay the price

G-|---------|---------|---------|---------|---------|---------|
D-|---------|---------|---------|---------|---------|---------|
A-|-0-0-0-0-|-0-0-0-0-|-0-0-0-0-|-0-0-0-0-|-0-0-0-0-|-0-0-0-0-|
E-|---------|---------|---------|---------|---------|---------|

We were strangers passing in the night

G-|---------|---------|-----------|---------|---------|------------|
D-|---------|---------|-----------|---------|---------|------------|
A-|-------7-|-------7-|-----------|-------7-|-------7-|------------|
E-|-0-0-0---|-0-0-0---|-0-0-0-8-7-|-0-0-0---|-0-0-0---|-0-0-0-8-10-|

How could I have known, how could I have known?


Chorus

G-|-----------------|----------------|----------------|----------------|----------|
D-|-----------------|------------5---|------------5---|------------5---|----------|
A-|-5-5-5-5---------|-7-5--5-5-7---7-|-5-3--3-3-5---7-|-7-5--5-5-7---7-|-5-3----5-|
E-|---------7-7-7-7-|----------------|----------------|----------------|----------|

As she took me in her arms and brought me to an end 
with the kiss of death, the kiss of death 

she promised paradise as she lied upon her bed 
like a fallen angel with the devil's charm 
she promised paradise with the kiss of death


Solo

G-|----------------|--------------------|--------------------|-------------------|
D-|----------------|--------------------|--------------------|-------------------|
A-|----------------|-5/7--5-3--3-0--5/7-|-5/7--5-3--3-0--5/7-|-5/7--5-3--3-0—5/7-|
E-|-0-0-0-0-000000-|--------------------|--------------------|-------------------|


Chorus

G-|-----------------|-----------------|
D-|-----------------|-----------------|
A-|-5-5-5-5---------|-5-5-5-5---------|
E-|---------7-7-7-7-|---------7-7-7-7-|

As she took me in her arms, I felt the devil's charm 
suddenly I see, final destiny with the kiss of death, the kiss of death

G-|----------------|----------------|----------------|----------|
D-|------------5---|------------5---|------------5---|----------|
A-|-7-5--5-5-7---7-|-5-3--3-3-5---7-|-7-5--5-5-7---7-|-5-3----5-|
E-|----------------|----------------|----------------|----------|

She promised paradise as she laid upon her bed 
like a fallen angel with the devil's charm 
she promised paradise with the kiss of death 


Ending

G-|-----------------|-------------------------------------------|
D-|-----------------|-------------------------------------------|
A-|-77---7-7-7---77-|-7777-7777-7777-7777-7777-7777-7777-7777-7-|
E-|-----------------|-------------------------------------------|

With the kiss of death
With the kiss of death
With the kiss of death
With the kiss of death

Tabbed by psweeney4
Suggest correction
Creating personal tab
Creating personal tab
You can edit any tab online and save it as your Personal.

You can edit, replace or remove any tab part or add personal notes – all changes will be seen only by you.

Personal tabs can be accessed anytime from any device, even offline.
Learn more »
Give kudos to tab author, rate the tab!
1 2 3 4 5
comments
print report bad tab
guest
You may want to rate the tab now too:
select rating
Wanna post a correction for this tab? Suggest correction