Oops, an error
Loading. Please wait.

Tooth And Nail Bass Tab

version 1
version 1

Whole song

Interactive

1,068 views 6 this week
no commentswrite comment
1 2 3 4 5
please rate
add to favorites
launch autoscroll
font size
0
reset
guitar tuner
Autoscroll
slow
fast
+/-
esc
set tempo
stop
Help us to improve Ultimate-Guitar.com Take our survey!
×
Author
Difficulty
Tuning
intermediate
D# G# C# F# A# D#
Artist: Dokken
Album: Tooth and Nail 
Song: Tooth and Nail 

Tuning: E Flat

Intro

F#-|-----|------------------|------------|------------------|----------|
C#-|-----|----------------5-|------------|----------------5-|----------|
G#-|-----|-777777-0-5-0-5---|-777777-5-0-|-777777-0-5-0-5---|-7777-----|
D#-|-19/-|------------------|------------|------------------|------19/-|


Verse 1

F#-|--------|--------|--------|--------|--------|-------------|
C#-|--------|--------|--------|--------|--------|-------------|
G#-|-777777-|-777777-|-777777-|-777777-|-777777-|-7777777-5-6-|
D#-|--------|--------|--------|--------|--------|-------------|

Desperate living, driving me mad, writings on the wall

F#-|--------|--------|--------|--------|--------|-------------|
C#-|--------|--------|--------|--------|--------|-------------|
G#-|-777777-|-777777-|-777777-|-777777-|-777777-|-7777777-5-~-|
D#-|--------|--------|--------|--------|--------|-------------|

Crushed all our hopes and the dreams we once had, just to watch them fall

F#-|-----|--------|--------|--------|--------|--------|--------------|
C#-|-----|--------|--------|--------|--------|--------|--------------|
G#-|-5/2-|-222222-|-222222-|-222222-|-222222-|-222222-|-222333444555-|
D#-|-----|--------|--------|--------|--------|--------|--------------|

Tearing it up in the daytime, burning it down at night


Chorus

F#-|--------|------------------|--------|------------|
C#-|--------|----------------5-|--------|------------|
G#-|-777777-|-777777-0-5-0-5---|-777777-|-777777-5-0-|
D#-|--------|------------------|--------|------------|

How long does it take, to break the spell?

F#-|--------|------------------|--------|--------------|
C#-|--------|----------------5-|--------|--------------|
G#-|-777777-|-777777-0-5-0-5---|-777777-|-777777-7-5-7-|
D#-|--------|------------------|--------|--------------|

Straight to the top, tooth and Nail

Verse 2

F#-|--------|--------|--------|--------|--------|-------------|
C#-|--------|--------|--------|--------|--------|-------------|
G#-|-777777-|-777777-|-777777-|-777777-|-777777-|-7777777-5-6-|
D#-|--------|--------|--------|--------|--------|-------------|

Last generation, reckless and free, up against the odds

F#-|--------|--------|--------|--------|--------|-------------|
C#-|--------|--------|--------|--------|--------|-------------|
G#-|-777777-|-777777-|-777777-|-777777-|-777777-|-7777777-5---|
D#-|--------|--------|--------|--------|--------|-------------|

Thoughts of revenge are going through me, fate lies in the cards

F#-|-----|--------|--------|--------|--------|--------|--------------|
C#-|-----|--------|--------|--------|--------|--------|--------------|
G#-|-5/2-|-222222-|-222222-|-222222-|-222222-|-222222-|-222333444555-|
D#-|-----|--------|--------|--------|--------|--------|--------------|

Tearing it up in the daytime, burning it down at night

Chorus

F#-|--------|------------------|--------|------------|
C#-|--------|----------------5-|--------|------------|
G#-|-777777-|-777777-0-5-0-5---|-777777-|-777777-5-0-|
D#-|--------|------------------|--------|------------|

How long does it take, to break the spell?

F#-|--------|------------------|--------|-------------|
C#-|--------|----------------5-|--------|-------------|
G#-|-777777-|-777777-0-5-0-5---|-777777-|-777777—-19\-|
D#-|--------|------------------|--------|-------------|

Straight to the top, tooth and Nail

Solo

F#-|-----------------------|--------------|
C#-|-----------------------|--------------|
G#-|---4-0-------4-0-------|-4--4--4--4---|
D#-|-2-----1-2-3-----1-1-1-|---2--2--2--2-|

F#-|-----------|-----------|-----------|-------|
C#-|-----------|-----------|-----------|-------|
G#-|-7-5---2-5-|-7-5---2-5-|-7-5---2-5-|-7-5---|
D#-|-----3-----|-----3-----|-----3-----|-----3-|

Stop

Verse 3

F#-|--------|--------|--------|--------|--------|-------------|
C#-|--------|--------|--------|--------|--------|-------------|
G#-|-777777-|-777777-|-777777-|-777777-|-777777-|-7777777-5-6-|
D#-|--------|--------|--------|--------|--------|-------------|

Desperate living, trying to see, breaking all the rules

F#-|--------|--------|--------|--------|--------|-------------|
C#-|--------|--------|--------|--------|--------|-------------|
G#-|-777777-|-777777-|-777777-|-777777-|-777777-|-7777777-5-~-|
D#-|--------|--------|--------|--------|--------|-------------|

Only the strong are gonna be free, from a world of fools

F#-|-----|--------|--------|--------|--------|--------|--------------|
C#-|-----|--------|--------|--------|--------|--------|--------------|
G#-|-5/2-|-222222-|-222222-|-222222-|-222222-|-222222-|-222333444555-|
D#-|-----|--------|--------|--------|--------|--------|--------------|

Tearing it up in the daytime, burning it down at night

Chorus

F#-|--------|------------------|--------|------------|
C#-|--------|----------------5-|--------|------------|
G#-|-777777-|-777777-0-5-0-5---|-777777-|-777777-5-0-|
D#-|--------|------------------|--------|------------|

How long does it take, to break the spell?

F#-|--------|------------------|--------|--------------|
C#-|--------|----------------5-|--------|--------------|
G#-|-777777-|-777777-0-5-0-5---|-777777-|-777777-7-5-7-|
D#-|--------|------------------|--------|--------------|

Straight to the top, tooth and Nail

Chorus repeat

F#-|--------|------------------|--------|------------|
C#-|--------|----------------5-|--------|------------|
G#-|-777777-|-777777-0-5-0-5---|-777777-|-777777-5-0-|
D#-|--------|------------------|--------|------------|

How long does it take, to break the spell?

F#-|--------|------------------|--------|--------------|
C#-|--------|----------------5-|--------|--------------|
G#-|-777777-|-777777-0-5-0-5---|-777777-|-777777—7-5-7-|
D#-|--------|------------------|--------|--------------|

Straight to the top, tooth and Nail

Chorus repeat again…

F#-|--------|------------------|--------|--------------|
C#-|--------|----------------5-|--------|--------------|
G#-|-777777-|-777777-0-5-0-5---|-777777-|-777777—7-5-7-|
D#-|--------|------------------|--------|--------------|

Tooth and Nail, Tooth and Nail

F#-|--------|------------------|--------|--------------|
C#-|--------|----------------5-|--------|--------------|
G#-|-777777-|-777777-0-5-0-5---|-777777-|-19/---—7-5-7-|
D#-|--------|------------------|--------|--------------|

Straight to the top, tooth and Nail

Tabbed by psweeney4
Suggest correction
What's this?
You can suggest a correction to this tab. Community and Mods will review your correction and vote to approve or reject it.
comments
We did not receive enough feedback on this tab! Please rate:
print report bad tab
1 2 3 4 5
guest
You may want to rate the tab now too:
select rating
Please do not post tabs as comments. Select "correction" instead!