Oops, an error
Loading. Please wait.

Unchain The Night Bass Tab

version 1
version 1

Whole song

Interactive

1,309 views 9 this week
no commentswrite comment
1 2 3 4 5
please rate
add to favorites
launch autoscroll
font size
0
reset
guitar tuner
Autoscroll
slow
fast
+/-
esc
set tempo
stop
Help us to improve Ultimate-Guitar.com Take our survey!
×
Author
Difficulty
Tuning
intermediate
D# G# C# F# A# D#
Artist: Dokken
Album: Under lock & Key
Song: Unchain the Night


Tuning: E flat


Intro

F#-|-------------------------------------|
C#-|-------------------------------------|
G#-|-7-------5-------7-------5---3--0----|
D#-|-----------------------------------0-|

F#-|----------------------|----FILL-----|------------------|
C#-|----------------------|-------------|------------------|
G#-|----------------------|-0---0-1-0---|------------------|
D#-|-00-00-00-00-00-00-00-|---3-------3-|-00-00-00-00-00-0-|


Verse 1

F#-|------------------------------------------|----FILL-----|
C#-|------------------------------------------|-------------|
G#-|------------------------------------------|-0---0-1-0---|
D#-|-00-00-00-00-00-00-00-00-00-00-00-00-00-0-|---3-------3-|

I've been lost in the middle, always trying to find the wishin' well

F#-|------------------------------------------|----FILL-----|
C#-|------------------------------------------|-------------|
G#-|------------------------------------------|-0---0-1-0---|
D#-|-00-00-00-00-00-00-00-00-00-00-00-00-00-0-|---3-------3-|
 
Runnin' 'round in circles, never crossing the line 

F#-|------------------------------------------|----FILL-----|
C#-|------------------------------------------|-------------|
G#-|------------------------------------------|-0---0-1-0---|
D#-|-00-00-00-00-00-00-00-00-00-00-00-00-00-0-|---3-------3-|

Don’t wanna touch you, don't wanna see 

F#-|------------------------------------------|----FILL-----|
C#-|------------------------------------------|-------------|
G#-|------------------------------------------|-2---3-2-----|
D#-|-00-00-00-00-00-00-00-00-00-00-00-00-00-0-|---------3-2-|

You've got a knife in your heart; don't say that you did it for me 


Chorus

F#-|---------|-------|---------|---------|-------------------------------|
C#-|---------|-------|---------|---------|-------------------------------|
G#-|-7-5-7---|-7-5-3-|-7-5-7---|-3-5-5-5-|-------------------------------|
D#-|-------3-|-------|-------3-|---------|-00-00-00-00-00-00-00-00-00-00-|

Never unchain the night, don't tell me that the love is gone 
Never unchain the night, 'Cause there's always another turn


Verse 2

F#-|------------------------------------------|----FILL-----|
C#-|------------------------------------------|-------------|
G#-|------------------------------------------|-0---0-1-0---|
D#-|-00-00-00-00-00-00-00-00-00-00-00-00-00-0-|---3-------3-|

You know right where you want it, but you never gave it in return 

F#-|------------------------------------------|----FILL-----|
C#-|------------------------------------------|-------------|
G#-|------------------------------------------|-0---0-1-0---|
D#-|-00-00-00-00-00-00-00-00-00-00-00-00-00-0-|---3-------3-|
 
Runnin' me in circles, always crossing the line

F#-|------------------------------------------|----FILL-----|
C#-|------------------------------------------|-------------|
G#-|------------------------------------------|-0---0-1-0---|
D#-|-00-00-00-00-00-00-00-00-00-00-00-00-00-0-|---3-------3-|

Don't want to touch you Leave you confused

F#-|------------------------------------------|----FILL-----|
C#-|------------------------------------------|-------------|
G#-|------------------------------------------|-2---3-2-----|
D#-|-00-00-00-00-00-00-00-00-00-00-00-00-00-0-|---------3-2-|

You took the easy way out, when you looked through the eyes of a fool


Chorus

F#-|---------|-------|---------|------|---------|-------|---------|-------|
C#-|---------|-------|---------|------|---------|-------|---------|-------|
G#-|-7-5-7---|-7-5-3-|-7-5-7---|-3--2-|-7-5-7---|-7-5-3-|-7-5-7---|-3-4-5-|
D#-|-------3-|-------|-------3-|------|-------3-|-------|-------3-|-------|

Never unchain the night, don't tell me that the love is gone 
Never unchain the night, 'Cause there's always another turn

Never unchain the night, don't tell me that the love is gone 
Never unchain the night, 'Cause there's always another turn


Bridge

F#-|----------------------------------------------------------------------------|
C#-|----------------------------------------------------------------------------|
G#-|-2222-2222-2222-2222-2222-2222-2222------2222-2222-2222-2222-2222-2222-2222-|
D#-|-------------------------------------3-5------------------------------------|

Never, never, never… never, never, never, never, never… never, never, never, never


Solo

F#-|---------|-------|---------|------|---------|-------|---------|---------|-R-|
C#-|---------|-------|---------|------|---------|-------|---------|---------|-E-|
G#-|-7-5-7---|-7-5-3-|-7-5-7---|-3--2-|-7-5-7---|-7-5-3-|-7-5-7---|-3-4-5---|-S-|
D#-|-------3-|-------|-------3-|------|-------3-|-------|-------3-|---------|-T-|


Chorus 2

F#-|-------------|---------------------------|-------------|
C#-|-------------|---------------------------|-------------|
G#-|-0---0-1-0---|-7--5--3--0-----7--5--3--0-|-0---0-1-0---|
D#-|---3-------3-|-------------0-------------|---3-------3-|

Never unchain the night, don't tell me that the love is gone 
Never unchain the night, I'm never gonna set you free

Never unchain the night, don't tell me that the love is gone 
Never unchain the night, 'Cause there's always another turn


Solo

F#-|---------------------------|-------------|
C#-|---------------------------|-------------|
G#-|-7--5--3--0-----7--5--3--0-|-0---0-1-0---|
D#-|-------------0-------------|---3-------3-|


Chorus + Ending

F#-|-----------------------------------------|
C#-|-----------------------------------------|
G#-|-7--5--3--0-----7--5--3----3-2--------77-|
D#-|-------------0-----------------3-2----00-|


Never unchain the night, don't tell me that the love is gone 
Never unchain the night, 'Cause there's always another turn 

Never unchain the night, don't tell me that the love is gone 
'Cause I'm never gonna set you free 


Tabbed by psweeney4
Suggest correction
Give kudos to tab author, rate the tab!
1 2 3 4 5
comments
print report bad tab
guest
You may want to rate the tab now too:
select rating
Please do not post tabs as comments. Select "correction" instead!