Oops, an error
Loading. Please wait.

Walk Away Tab

version 1
version 1

Whole song

Interactive

11,316 views 36 this week
4 commentsread comments
1 2 3 4 5
excellent!
x 6
add to favorites
launch autoscroll
font size
0
reset
how to read this tab
guitar tuner
Tab Pro tools
  • play this tab
  • loop segment
  • change instrument
  • show fretboard
  • metronome
Autoscroll
slow
fast
+/-
esc
set tempo
stop

                                 2005
                                Dokken
                               Walk Away
                                1-22-05
                         Tabbed by Elias Karvonen

I'm only an eleven year old kid that has been wanting this tab for a long time, until
this morning I saw George Lynch's fingering on Metal Mania and tabbed it out. So here
it is!!!

                           (Repeat intro 3 Times)
E--------1--0--------------------------|-------------------------------------|
B--------------3-------3------------3--|----------3---------------3----------|
G-------------------------0---------0--|-------------0---------------0-------|
D----0-----------------------0------0--|----------------0---------------0----|
A-------------------3---------------2--|--------2---------------3------------|
E--------------------------------------|-------------------------------------|


             (Here's the fourth time)
E-------|--------1--0----------------------------|---------------------------|
B-------|--------------3-------3--------------3--|-----------3---------------|
G---2---|--------------------------0----------0--|--------0-------------0----|
D---0---|----0-------------------------0------0--|-----0-------------0-------|
A-------|-------------------3-----------------2--|--2-------------3----------|
E-------|----------------------------------------|---------------------------|

E-----------|--------1--0---------------------------|------------------------|
B--------3--|--------------3--------3------------3--|---------3--------------|
G------2----|---------------------------0--------0--|-----------0------------|
D-----------|----0-------------------------0-----0--|-------------0----------|
A---4-------|-------------------3----------------2--|-------2----------------|
E-----------|---------------------------------------|------------------------|

E---------------------|--------1--0----------------------------|-------------|
B-------3-------------|--------------3---------3------------3--|-------------|
G---------0--------2--|----------------------------0--------0--|-------------|
D-----------0------0--|----0--------------------------0-----0--|-------------|
A----3----------------|-------------------3-----------------2--|-------------|
E---------------------|----------------------------------------|-------------|

That is all so I know so I hope you enjoyed the only tab of Walk Away on the web.
comments
print report bad tab
4 comments total. Showing first comments.
0 reply
mikedeit wrote on June 23 2005, 12:00 am

There is one error here it is

e-----1-0-------------------|-----------------------
B---------3------3------3---|------3-------3---3---- the note in
G------------------0----0---|--------0-------0-2---- parentheses is D-----------------------x---|------------------0---- note you had rong
A--0---------3-------3--2---|--(1)-----3------------ it's 1 on the A.
E---------------------------|-----------------------

Other than that, it's a good tab

0 reply
Rhoads2000 wrote on June 20 2006, 03:18 pm

Great tab

0 reply
m.o.d.--- wrote on April 28 2007, 12:16 pm

you only 11
good job

I want to post or [tab]
guest
You may want to rate the tab now too:
select rating
Please do not post tabs as comments. Select "correction" instead!