Oops, an error
Loading. Please wait.

When Heaven Comes Down Tab

version 1
version 1

Whole song

Interactive

4,863 views 6 this week
no commentswrite comment
1 2 3 4 5
please rate
add to favorites
launch autoscroll
font size
0
reset
how to read this tab
guitar tuner
Tab Pro tools
  • play this tab
  • loop segment
  • change instrument
  • show fretboard
  • metronome
×
Best way to learn
"When Heaven Comes Down"
Autoscroll
slow
fast
+/-
esc
set tempo
stop
                        When Heaven Comes Down

      Tab key:
   = let ring
   ~ artificial harmonic
  [ ]natural harmonic
   x mute note
  \/\/ wammy bar
   / slide up
   \ slide down

Tuned down 1/2 step

 Intro
 E----------------------------------------------------[5]/\/\/\------|
 B----------------------------------------[5]----[5]-----------------|
 G-------------------------------------------------------------------|
 D---9---8------9----8------9----8-----------[4]---------------------|
 A---7---7------7----7------7----7--x-x-12---------------------------|
 E----0-0--0-0-0--0-0--0-0-0--0-0------------------------------------|

 E-------------------2=---------------------------------------------|
 B-------------------2=---------------------------------------------|
 G-------------------0=---------------------------------------------|
 D---9---8------9----0=-------9----8--------------------------------|
 A---7---7------7----x=-------7----7-----2~-3~-0~-2~-0~-------------|
 E----0-0--0-0-0-0-0-3=--------0-0------------------3~--2~-3~-------|

 Verse (2x)
 E-------------------------------------------------2=---------------|
 B-------------------------------------------------2=---------------|
 G-------------------------------------------------0=---------------|
 D---9----8-------9----8--7--5--9---8------9-------0=---------------|
 A---7----7-------7----7--7--5--7---7------7-------x=---------------|
 E----0-0---0-0-0--0-0-----------0-0--0-0-0--0-0---3=---------------|
      x x   x x x  x x        x    x
 Chorus
 E--------------------------------------------------------------------|
 B------------------------3-3-3-3-------------------------------------|
 G--2---9---9--10----9----0-0-0-0--0--0-------0----5---5---5---5------|
 D--2---7---7--------7----2-2-2-2--0--0-----2------3---3---2---0------|
 A--0---0---0------0------3-3-3-3--5--5----------5---5---5---3---2----|
 E---------------------------------3--3-------------------------------|


 E--------------------------------------------------------------------|
 B------------------------3-3-3-3-------------------------------------|
 G--2---9---9--10----9----0-0-0-0--0--0----0--0-----------------------|
 D--2---7---7--------7----2-2-2-2--0--0----0--0-----3---3-3-3---------|
 A--0---0---0------0------3-3-3-3--x--x----x--x-----3---3-3-3--0--2---|
 E---------------------------------3--3----3--3--0--1---1-1-1---------|


 E---------------------------------------------------------------------|
 B---------------------------------------------------------------------|
 G----------------------0-0-0-0-------------/--------------------------|
 D--9----8--------9-----0-0-0-0---9----8----/--------------------------|
 A--7----7--------7-----x-x-x-x---7----7----/-2-3-0-2--0---------------|
 E---0-0---0-0-0---0-0--3-3-3-3-----0-0-----/---------3--2-------------|


 Second Chorus Leading into the Bridge
 E-----------------------------------------------------------------------|
 B-----------------------------------------------------------------------|
 G-------------------0-0-0-0-------------------------------------0-0-0-0-|
 D--9----8-----9-----0-0-0-0--9---8-----------5---9---8-----9----0-0-0-0-|
 A--7----7-----7-----x-x-x-x--7---7-----------3---7---7-----7----x-x-x-x-|
 E---0-0--0-0-0--0-0-3-3-3-3---0-0--0-0-3-0-0------0-0-0-0-0-0-0-3-3-3-3-|

        E------------------------------|
        B------------------------------|
        G---------/--------------------|
        D--9---8--/----------------2-2-|
        A--7---7--/--2-3-0-2-0-2---2-2-|
        E---0-0---/---------3------0-0-|

 Bridge
 E----------------------------------------------------------------------|
 B----------------------------------------------------------------------|
 G-------------0----------------5--------------------/--[7]-------------|
 D------9--9---9----x-x--9--9---5----------9--9---9--/------[7]-----5---|
 A-----10--7-7-7----x-x-10--7-0-3----7-7--10--7---7--/---------[5]--3---|
 E--0-0------0----------------------------------0-0--/------------------|

 E----------------------------------------------------------------[5]---|
 B------------------------------------------------------[5]---[5]-------|
 G-------------0----------------5--------------------/-----[4]----------|
 D------9--9---9----x-x--9--9---5----------9--9---9--/------------------|
 A-----10--7-7-7----x-x-10--7-0-3----7-7--10--7---7--/------------------|
 E--0-0------0----------------------------------0-0--/------------------|

 Solo          h  p  p h              h  p  p        p    p h     p h p
 E-----------------------------------------------------------------------|
 B--11~------10-11-10-8-10--10~-----10-11-10-8-8--10---8-------8---------|
 G--------------------------------------------9----------9-7-9---9-7-9-7-|
 D-----------------------------------------------------------------------|
 A-----------------------------------------------------------------------|
 E-----------------------------------------------------------------------|

          h p    h  p  p      p   p     h                        A.H.
 E-----------------------------------------------------------------------|
 B-------------10-11-10-8--8-------------------------------------15(17)--|
 G--9~---7-9-7------------9--9-7-----------------------------------------|
 D-------------------------------9-8-7/5-7------7~-----5-----------------|
 A--------------------------------------------------------5~-------------|
 E-----------------------------------------------------------------------|

                                p     h      h  p        p  p         A.H.

 E---------12---------------------------------------------------------15(17)-|
 B--15(17)---15-12-----12-----12-15-15-12--12-15-12--12----------------------|
 G-----------------15------15------------15--------15--15-14-13---12---------|
 D--------------------------------------------------------------14-----------|
 A---------------------------------------------------------------------------|
 E---------------------------------------------------------------------------|


 E--15(18)-----15~--12-------------------------------------------------------|
 B---------------------15-12----------12-------------------------20(22)~~~---|
 G---------------------------15-14-14----15-14-12---14-----------------------|
 D------------------------------------------------14--14---------------------|
 A---------------------------------------------------------------------------|
 E---------------------------------------------------------------------------|


 E----17--19--20-19--20------------------8---8\7--7\5--5\3---3-3-------------|
 B----------------------20(22)(23)(22)---------------------------------------|
 G--------------------------------------9--9-----7----5----5-----------------|
 D---------------------------------------------------------------------------|
 A---------------------------------------------------------------------------|
 E---------------------------------------------------------------------------|


                  h  h      p               p          p h  p     p  h

 E-----------------------------------12---13-12---10-10-8-10-8-10--8--10-----|
 B--------------10-12-13--13-10----------------------------------------------|
 G--12(13)(14)---------------------------------------------------------------|
 D-----------------------------12-12-----------------------------------------|
 A---------------------------------------------------------------------------|
 E---------------------------------------------------------------------------|


    h    h    p    p    p h  p       p h p   p h    h p   p   p

 E-7-8--7-8--7-5--7-5--5-7-5---5---5-----------------------------------------|
 B--------------------8-----8-6-8---8-5-6-5----------------------------------|
 G------------------------------------------7-5-7--5-7-5---------------------|
 D-------------------------------------------------------7-5-----------------|
 A-----------------------------------------------------------7-5--5----------|
 E---------------------------------------------------------------8-------7/--|
comments
We did not receive enough feedback on this tab! Please rate:
print report bad tab
1 2 3 4 5
I want to post or [tab]
guest
You may want to rate the tab now too:
select rating
Please do not post tabs as comments. Select "correction" instead!