Oops, an error
Loading. Please wait.

Will The Sun Rise Tab

version 1
version 1

Whole song

Interactive

2,538 views 3 this week
no commentswrite comment
1 2 3 4 5
1 last vote to show rating
add to favorites
launch autoscroll
font size
0
reset
how to read this tab
guitar tuner
Autoscroll
slow
fast
+/-
esc
set tempo
stop
Help us to improve Ultimate-Guitar.com Take our survey!
×
Author
Song:Will The Sun Rise
Artist:Dokken
Album:Under Lock And Key
Tuning:Standard

Legend
------

h  = hammer-on
p  = pull-off
b  = bend
r  = bend release
/  = slide up/down
<5> = natural harmonic
[5] = artifical harmonic
~  = vibrato
tr = trill

      Clean tone W/ overdub 1 & 2      Overdub 1 (distorted tone)  Overdub 2

E|---^1--0------------------------|-----------------------------|--12-|
B|*--^3--3----3--1---3--1---3--1-*|-----------------------------|-----|
G|---^2--2----2--2---0--0---0--0--|-7---------------2------5----|-----|
D|---^0--0----3--3---2--2---2--2--|-7-------3-------2------5----|-----|
A|*--^---------------0--0---3--3-*|-5-------3-------0------3----|-----|
E|---^----------------------------|---------1-------------------|-----|



E|---r12~-10h-12-----10h-12-----------15b17----------|------------------|
B|---------------13~--------13~-(13)\----------------|------------------|
G|---------------------------------------------------|------7-------7---|
D|---------------------------------------------------|------7-------7---|
A|---------------------------------------------------|--5-5-5-5-5-5-5-5-|
E|---------------------------------------------------|------------------|

                           Verse section

E|---------------------|----------------------------------------------|
B|---------------------|*---------------------------------------------|
G|-----7-------7-------|--------7-------7-------7-------7-------------|
D|-----7-------7-------|--------7-------7-------7-------7-3-----3-----|
A|-5-5-5-5-5-5-5-------|*-5-5-5-5-5-5-5-5-5-5-5-5-5-5-5-5-3-----3-----|
E|---------------------|----------------------------------1-1-1-1-1-1-|



E|---------------------|-----3---3-2-----------------------------------|
B|--------------------*|-3---3---3-3---------8---8-7---------6---6-5---|
G|----------------5-5--|-2---2---2-2---------5---5-5---------3---3-3---|
D|---3-------3----5-5--|-0-0-0-0-0-0-0-0-0-0-0-0-0-0-0-0-0-0-0-0-0-0-0-|
A|---3-------3----3-3-*|-----------------------------------------------|
E|-1-1-1-1-1-1-1-------|-----------------------------------------------|



E|-------------------------------------------------|-------------------|
B|-------6---6-5-----3--3-8---8-7---------8---8-7--|------------3------|
G|-------3---3-3-----2--2-7---7-7---------7---7-7--|-----0----0------0-|
D|-0-0-0-0-0-0-0-0-0-0----0-0-0-0-0-0-0-0-0-0-0-0--|---0-----------3---|
A|-------------------------------------------------|-1-----2~----------|
E|-------------------------------------------------|-------------------|

            "..a-no-ther  day?.." Solo

E|--------|---------|-12b13---(13)----12--r10-----10-----5-------------|
B|-3------|-6--5--3-|-------------------------13~----12~---5h6-5-6-5-6-|
G|---2----|-7--5--3-|--------------------------------------------------|
D|--------|-8--5--3-|--------------------------------------------------|
A|------3-|-8-----1-|--------------------------------------------------|
E|--------|-6-------|--------------------------------------------------|



E|-----------12b13------r(12)h10----12b13--12--10h12-10-----19b20--19--|
B|-5----------------------------------------------------13~------------|
G|---7-5-4-------------------------------------------------------------|
D|---------5-----------------------------------------------------------|
A|---------------------------------------------------------------------|
E|---------------------------------------------------------------------|



E|--(10)r--19~---10h12-12b13----r-----10-12-12b13--------------22b23---|
B|----------------------------------x----------------------------------|
G|--------------------------------x------------------------------------|
D|---------------------------------------------------------------------|
A|---------------------------------------------------------------------|
E|---------------------------------------------------------------------|



E|--r-22-20-19---------------------------------------------------------|
B|-------------20------------------------------------------------------|
G|----------------19~-----------------------------------------------12h|
D|-------------------------/14-14-14b15--r(14)----7/-12h14-12h14-15----|
A|---------------------------------------------------------------------|
E|---------------------------------------------------------------------|



E|------------------------------------12b13----r12-{12}-12~---17-------|
B|------------------------------------------------------------20---r20-|
G|-14-12-------12h14-12----12------------------------------------------|
D|-------14-15----------15----14-12------------------------------------|
A|---------------------------------------------------------------------|
E|---------------------------------------------------------------------|



E|-----------17h19-22-12-13-22-17-19-22-17-17-17-20h17-19h17-17h16-15----|
B|-20~-17-19----------------------------------------------------------17-|
G|-----------------------------------------------------------------------|
D|-----------------------------------------------------------------------|
A|-----------------------------------------------------------------------|
E|-----------------------------------------------------------------------|



E|-15--------------------------------------------------8b9---r-5h8-5\4/|
B|----17h15-17-15------------------------------------------------------|
G|----------------17h15-17-14-15-12------------------------------------|
D|----------------------------------17h15-14h17-14---------------------|
A|-------------------------------------------------17------------------|
E|---------------------------------------------------------------------|



E|-5h8-5\4/5h8-5\4/5-4h5-4-4h5-4--0h2-3--0h2-3--0h2-3----3--1--0-------|
B|----------------------------------------------------8~-3-------3-----|
G|-------------------------------------------------------0---------2-2-|
D|-------------------------------------------------------0-----------2-|
A|-------------------------------------------------------------------0-|
E|-------------------------------------------------------3-------------|



E|------------17----1--0-----(15)--1--0---3--1--0-------------1--0-----|
B|---------13------------3-----3--------3-3-------3----------------3---|
G|------14-----3-----------0---0----------0---------2-2----3---------0-|
D|---12--------3---------------0----------0-----------2----3-----------|
A|-------------1---------------2----------------------0----1-----------|
E|----------------------------------------3----------------------------|



E|---------------1----------------|
B|-3----3-3----3----3-1--3-1--3-1-|
G|-0--0---0--0------2-2--0-0--0-0-|
D|-0----------------3-3--2-2--2-2-|
A|-2------3--------------0-0--3-3-|
E|--------------------------------|


LYRICS:

In the name of liberty, we set off to the sea
In the name of glory, fighting to be free
But one mistake can set it all to rest
No one sees and no one wins the game of chance

I need to know

Will the sun rise when it's over
Will the sun rise, will there be a sky
Will the sun rise another day    

A simple answer, that all of us should see
Let things be what they may be
Opne your eyes, do you think that you're the best
Try to see the light before the final test

I need to know

Will the sun rise when it's over
Will the sun ride, will there be a sky
Will the sun rise another day

Someone is watching, waiting to see
If there's a chance before the sun fades for eternity

Will the sun rise when it's over
Will the sun rise, will there be a sky
Will the sun rise when it's over
Will the sun rise another day

Will the sun rise, I need to know
Will the sun rise when it's over
Will the sun rise, I need to know
Will the sun rise, will there be a sky

Will the sun rise
Will the sun rise
When it's over






Suggest correction
Give kudos to tab author, rate the tab!
1 2 3 4 5
comments
print report bad tab
guest
You may want to rate the tab now too:
select rating
Wanna post a correction for this tab? Suggest correction